  0
SECTION
  2
HEADER
  9
$ACADVER
  1
AC1009
  9
$INSBASE
 10
0.0
 20
0.0
 30
0.0
  9
$EXTMIN
 10
-180.02197165039581
 20
-271.09566963631528
 30
-0.0000000349181948
  9
$EXTMAX
 10
180.0219750032596
 20
263.36233294453291
 30
0.0000000814935747
  9
$LIMMIN
 10
0.0
 20
0.0
  9
$LIMMAX
 10
0.0
 20
0.0
  9
$ORTHOMODE
 70
     0
  9
$REGENMODE
 70
     1
  9
$FILLMODE
 70
     1
  9
$QTEXTMODE
 70
     0
  9
$MIRRTEXT
 70
     1
  9
$DRAGMODE
 70
     2
  9
$LTSCALE
 40
10.16
  9
$OSMODE
 70
   231
  9
$ATTMODE
 70
     1
  9
$TEXTSIZE
 40
0.0
  9
$TRACEWID
 40
1.0
  9
$TEXTSTYLE
  7
STANDARD
  9
$CLAYER
  8
DATA
  9
$CELTYPE
  6
BYLAYER
  9
$CECOLOR
 62
   256
  9
$DIMSCALE
 40
1.0
  9
$DIMASZ
 40
0.18
  9
$DIMEXO
 40
0.0625
  9
$DIMDLI
 40
0.38
  9
$DIMRND
 40
0.0
  9
$DIMDLE
 40
0.0
  9
$DIMEXE
 40
0.18
  9
$DIMTP
 40
0.0
  9
$DIMTM
 40
0.0
  9
$DIMTXT
 40
0.18
  9
$DIMCEN
 40
0.09
  9
$DIMTSZ
 40
0.0
  9
$DIMTOL
 70
     0
  9
$DIMLIM
 70
     0
  9
$DIMTIH
 70
     1
  9
$DIMTOH
 70
     1
  9
$DIMSE1
 70
     0
  9
$DIMSE2
 70
     0
  9
$DIMTAD
 70
     0
  9
$DIMZIN
 70
     0
  9
$DIMBLK
  1

  9
$DIMASO
 70
     1
  9
$DIMSHO
 70
     1
  9
$DIMPOST
  1

  9
$DIMAPOST
  1

  9
$DIMALT
 70
     0
  9
$DIMALTD
 70
     2
  9
$DIMALTF
 40
25.399999999999999
  9
$DIMLFAC
 40
1.0
  9
$DIMTOFL
 70
     0
  9
$DIMTVP
 40
0.0
  9
$DIMTIX
 70
     0
  9
$DIMSOXD
 70
     0
  9
$DIMSAH
 70
     0
  9
$DIMBLK1
  1

  9
$DIMBLK2
  1

  9
$DIMSTYLE
  2
STANDARD
  9
$DIMCLRD
 70
     0
  9
$DIMCLRE
 70
     0
  9
$DIMCLRT
 70
     0
  9
$DIMTFAC
 40
1.0
  9
$DIMGAP
 40
0.09
  9
$LUNITS
 70
     2
  9
$LUPREC
 70
     4
  9
$SKETCHINC
 40
0.1
  9
$FILLETRAD
 40
0.0
  9
$AUNITS
 70
     0
  9
$AUPREC
 70
     0
  9
$MENU
  1
acad
  9
$ELEVATION
 40
0.0
  9
$PELEVATION
 40
0.0
  9
$THICKNESS
 40
0.0
  9
$LIMCHECK
 70
     0
  9
$BLIPMODE
 70
     0
  9
$CHAMFERA
 40
0.0
  9
$CHAMFERB
 40
0.0
  9
$SKPOLY
 70
     0
  9
$TDCREATE
 40
2456868.4828935191
  9
$TDUPDATE
 40
2456868.5467745722
  9
$TDINDWG
 40
0.0008358681
  9
$TDUSRTIMER
 40
0.0008356366
  9
$USRTIMER
 70
     1
  9
$ANGBASE
 50
0.0
  9
$ANGDIR
 70
     0
  9
$PDMODE
 70
     1
  9
$PDSIZE
 40
-2.0
  9
$PLINEWID
 40
0.0
  9
$COORDS
 70
     2
  9
$SPLFRAME
 70
     0
  9
$SPLINETYPE
 70
     6
  9
$SPLINESEGS
 70
     8
  9
$ATTDIA
 70
     0
  9
$ATTREQ
 70
     1
  9
$HANDLING
 70
     1
  9
$HANDSEED
  5
453
  9
$SURFTAB1
 70
     6
  9
$SURFTAB2
 70
     6
  9
$SURFTYPE
 70
     6
  9
$SURFU
 70
     6
  9
$SURFV
 70
     6
  9
$UCSNAME
  2

  9
$UCSORG
 10
0.0
 20
0.0
 30
0.0
  9
$UCSXDIR
 10
1.0
 20
0.0
 30
0.0
  9
$UCSYDIR
 10
0.0
 20
1.0
 30
0.0
  9
$PUCSNAME
  2

  9
$PUCSORG
 10
0.0
 20
0.0
 30
0.0
  9
$PUCSXDIR
 10
1.0
 20
0.0
 30
0.0
  9
$PUCSYDIR
 10
0.0
 20
1.0
 30
0.0
  9
$USERI1
 70
     0
  9
$USERI2
 70
     0
  9
$USERI3
 70
     0
  9
$USERI4
 70
     0
  9
$USERI5
 70
     0
  9
$USERR1
 40
0.0
  9
$USERR2
 40
0.0
  9
$USERR3
 40
0.0
  9
$USERR4
 40
0.0
  9
$USERR5
 40
0.0
  9
$WORLDVIEW
 70
     1
  9
$SHADEDGE
 70
     3
  9
$SHADEDIF
 70
    70
  9
$TILEMODE
 70
     1
  9
$MAXACTVP
 70
    64
  9
$PLIMCHECK
 70
     0
  9
$PEXTMIN
 10
1.0000000000000000E+020
 20
1.0000000000000000E+020
 30
1.0000000000000000E+020
  9
$PEXTMAX
 10
-1.0000000000000000E+020
 20
-1.0000000000000000E+020
 30
-1.0000000000000000E+020
  9
$PLIMMIN
 10
0.0
 20
0.0
  9
$PLIMMAX
 10
12.0
 20
9.0
  9
$UNITMODE
 70
     0
  9
$VISRETAIN
 70
     0
  9
$PLINEGEN
 70
     1
  9
$PSLTSCALE
 70
     0
  0
ENDSEC
  0
SECTION
  2
TABLES
  0
TABLE
  2
VPORT
 70
     1
  0
VPORT
  2
*ACTIVE
 70
     0
 10
0.0
 20
0.0
 11
1.0
 21
1.0
 12
48.395183463395142
 22
14.47913505708766
 13
0.0
 23
0.0
 14
1.0
 24
1.0
 15
0.0
 25
0.0
 16
0.0
 26
0.0
 36
1.0
 17
0.0
 27
0.0
 37
0.0
 40
861.48374480806149
 41
2.436456996148908
 42
50.0
 43
0.0
 44
0.0
 50
0.0
 51
0.0
 71
     0
 72
  2000
 73
     1
 74
     1
 75
     0
 76
     0
 77
     0
 78
     0
  0
ENDTAB
  0
TABLE
  2
LTYPE
 70
     2
  0
LTYPE
  2
CONTINUOUS
 70
     0
  3
Solid line
 72
    65
 73
     0
 40
0.0
  0
ENDTAB
  0
TABLE
  2
LAYER
 70
     5
  0
LAYER
  2
0
 70
     0
 62
     7
  6
CONTINUOUS
  0
LAYER
  2
DATA
 70
     0
 62
     7
  6
CONTINUOUS
  0
LAYER
  2
HIBINO-BASE
 70
     0
 62
     7
  6
CONTINUOUS
  0
LAYER
  2
SPEC
 70
     0
 62
     7
  6
CONTINUOUS
  0
LAYER
  2
DIMNSIONS
 70
     0
 62
     7
  6
CONTINUOUS
  0
ENDTAB
  0
TABLE
  2
STYLE
 70
     2
  0
STYLE
  2
STANDARD
 70
     0
 40
0.0
 41
1.0
 50
0.0
 71
     0
 42
0.0
  3
txt
  4
BIGFONT.SHX
  0
ENDTAB
  0
TABLE
  2
VIEW
 70
     0
  0
ENDTAB
  0
TABLE
  2
UCS
 70
     0
  0
ENDTAB
  0
TABLE
  2
APPID
 70
     5
  0
APPID
  2
ACAD
 70
     0
  0
APPID
  2
ACADANNOTATIVE
 70
     0
  0
APPID
  2
ACAD_NAV_VCDISPLAY
 70
     0
  0
APPID
  2
ACAD_MLEADERVER
 70
     0
  0
APPID
  2
ACAD_EXEMPT_FROM_CAD_STANDARDS
 70
     0
  0
ENDTAB
  0
TABLE
  2
DIMSTYLE
 70
     2
  0
DIMSTYLE
  2
STANDARD
 70
     0
  3

  4

  5

  6

  7

 40
1.0
 41
0.18
 42
0.0625
 43
0.38
 44
0.18
 45
0.0
 46
0.0
 47
0.0
 48
0.0
140
0.18
141
0.09
142
0.0
143
25.399999999999999
144
1.0
145
0.0
146
1.0
147
0.09
 71
     0
 72
     0
 73
     1
 74
     1
 75
     0
 76
     0
 77
     0
 78
     0
170
     0
171
     2
172
     0
173
     0
174
     0
175
     0
176
     0
177
     0
178
     0
  0
ENDTAB
  0
ENDSEC
  0
SECTION
  2
BLOCKS
  0
BLOCK
  8
0
  2
$MODEL_SPACE
 70
     0
 10
0.0
 20
0.0
 30
0.0
  3
$MODEL_SPACE
  1

  0
ENDBLK
  5
3D4
  8
0
  0
BLOCK
 67
     1
  8
0
  2
$PAPER_SPACE
 70
     0
 10
0.0
 20
0.0
 30
0.0
  3
$PAPER_SPACE
  1

  0
ENDBLK
  5
3D0
 67
     1
  8
0
  0
ENDSEC
  0
SECTION
  2
ENTITIES
  0
LINE
  5
2C
  8
HIBINO-BASE
  6
CONTINUOUS
 62
     7
 10
-179.99999999999989
 20
263.32974548635792
 30
0.0
 11
179.99999999999989
 21
263.32974548635792
 31
0.0
  0
LINE
  5
2D
  8
HIBINO-BASE
  6
CONTINUOUS
 62
     7
 10
179.99999999999989
 20
-256.67025451364202
 30
0.0
 11
-179.99999999999989
 21
-256.67025451364202
 31
0.0
  0
LINE
  5
2E
  8
HIBINO-BASE
  6
CONTINUOUS
 62
     7
 10
-179.99999999999989
 20
-256.67025451364202
 30
0.0
 11
-179.99999999999989
 21
263.32974548635792
 31
0.0
  0
LINE
  5
2F
  8
HIBINO-BASE
  6
CONTINUOUS
 62
     7
 10
179.99999999999989
 20
263.32974548635792
 30
0.0
 11
179.99999999999989
 21
-256.67025451364202
 31
0.0
  0
LINE
  5
30
  8
HIBINO-BASE
  6
CONTINUOUS
 62
     7
 10
0.0000000000000142
 20
-211.67025451364199
 30
0.0
 11
179.99999999999989
 21
-211.67025451364199
 31
0.0
  0
LINE
  5
31
  8
HIBINO-BASE
  6
CONTINUOUS
 62
     7
 10
0.0000000000000142
 20
-256.67025451364202
 30
0.0
 11
0.0000000000000142
 21
-211.67025451364199
 31
0.0
  0
TEXT
  5
32
  8
HIBINO-BASE
 62
     7
 10
1.800000000000024
 20
-216.6876411803087
 30
0.0
 40
3.257682291666665
  1
NOTE
 41
0.7
 11
1.800000000000024
 21
-213.42995888864201
 31
0.0
 73
     3
  0
LINE
  5
33
  8
HIBINO-BASE
  6
CONTINUOUS
 62
     7
 10
70.000000000000014
 20
-256.67025451364202
 30
0.0
 11
70.000000000000014
 21
-211.67025451364199
 31
0.0
  0
TEXT
  5
34
  8
HIBINO-BASE
 62
     7
 10
71.799999999999983
 20
-216.6876411803087
 30
0.0
 40
3.257682291666665
  1
TITLE
 41
0.7
 11
71.799999999999983
 21
-213.42995888864201
 31
0.0
 73
     3
  0
LINE
  5
35
  8
HIBINO-BASE
  6
CONTINUOUS
 62
     7
 10
0.0000000000000142
 20
-236.67025451364199
 30
0.0
 11
179.99999999999989
 21
-236.67025451364199
 31
0.0
  0
TEXT
  5
36
  8
HIBINO-BASE
 62
     7
 10
96.799999999999983
 20
-241.5750011803087
 30
0.0
 40
3.257682291666665
  1
DRAWN
 41
0.7
 11
96.799999999999983
 21
-238.31731888864201
 31
0.0
 73
     3
  0
TEXT
  5
37
  8
HIBINO-BASE
 62
     7
 10
46.799999999999983
 20
-241.5750011803087
 30
0.0
 40
3.257682291666665
  1
DATE
 41
0.7
 11
46.799999999999983
 21
-238.31731888864201
 31
0.0
 73
     3
  0
TEXT
  5
38
  8
HIBINO-BASE
 62
     7
 10
26.800000000000001
 20
-241.5750011803087
 30
0.0
 40
3.257682291666665
  1
SCALE
 41
0.7
 11
26.800000000000001
 21
-238.31731888864201
 31
0.0
 73
     3
  0
TEXT
  5
39
  8
HIBINO-BASE
 62
     7
 10
71.799999999999983
 20
-241.5750011803087
 30
0.0
 40
3.257682291666665
  1
DESIGN
 41
0.7
 11
71.799999999999983
 21
-238.31731888864201
 31
0.0
 73
     3
  0
TEXT
  5
3A
  8
HIBINO-BASE
 62
     7
 10
146.7999999999999
 20
-241.5750011803087
 30
0.0
 40
3.257682291666665
  1
DRAWING NO.
 41
0.7
 11
146.7999999999999
 21
-238.31731888864201
 31
0.0
 73
     3
  0
TEXT
  5
3B
  8
HIBINO-BASE
 62
     7
 10
121.7999999999999
 20
-241.5750011803087
 30
0.0
 40
3.257682291666665
  1
CHECK
 41
0.7
 11
121.7999999999999
 21
-238.31731888864201
 31
0.0
 73
     3
  0
LINE
  5
3C
  8
HIBINO-BASE
  6
CONTINUOUS
 62
     7
 10
28.750000000000011
 20
-254.17025451364199
 30
0.0
 11
36.250000000000021
 21
-246.67025451364199
 31
0.0
  0
TEXT
  5
3D
  8
HIBINO-BASE
 62
     7
 10
27.500000000000011
 20
-248.88814118030871
 30
0.0
 40
3.257682291666665
  1
1
 41
0.7
 11
27.500000000000011
 21
-245.63045888864201
 31
0.0
 73
     3
  0
LINE
  5
3E
  8
HIBINO-BASE
  6
CONTINUOUS
 62
     7
 10
25.000000000000011
 20
-256.67025451364202
 30
0.0
 11
25.000000000000011
 21
-236.67025451364199
 31
0.0
  0
LINE
  5
3F
  8
HIBINO-BASE
  6
CONTINUOUS
 62
     7
 10
44.999999999999979
 20
-256.67025451364202
 30
0.0
 11
44.999999999999979
 21
-236.67025451364199
 31
0.0
  0
LINE
  5
40
  8
HIBINO-BASE
  6
CONTINUOUS
 62
     7
 10
94.999999999999957
 20
-236.67025451364199
 30
0.0
 11
94.999999999999957
 21
-256.67025451364202
 31
0.0
  0
LINE
  5
41
  8
HIBINO-BASE
  6
CONTINUOUS
 62
     7
 10
145.0
 20
-236.67025451364199
 30
0.0
 11
145.0
 21
-256.67025451364202
 31
0.0
  0
LINE
  5
42
  8
HIBINO-BASE
  6
CONTINUOUS
 62
     7
 10
119.9999999999999
 20
-256.67025451364202
 30
0.0
 11
119.9999999999999
 21
-236.67025451364199
 31
0.0
  0
TEXT
  5
43
  8
HIBINO-BASE
 62
     7
 10
46.713080000000019
 20
-250.94296118030871
 30
0.0
 40
3.257682291666665
  1
'14.07.
 41
0.7
 11
46.713080000000019
 21
-247.68527888864199
 31
0.0
 73
     3
  0
TEXT
  5
44
  8
HIBINO-BASE
 62
     7
 10
35.000000000000007
 20
-252.63814118030871
 30
0.0
 40
3.257682291666665
  1
2
 41
0.7
 11
35.000000000000007
 21
-249.38045888864201
 31
0.0
 73
     3
  0
TEXT
  5
45
  8
HIBINO-BASE
 62
     7
 10
98.011620022069224
 20
-250.94296118030871
 30
0.0
 40
3.257682291666665
  1
Ootake
 41
0.7
 11
98.011620022069224
 21
-247.68527888864199
 31
0.0
 73
     3
  0
TEXT
  5
46
  8
HIBINO-BASE
 62
     7
 10
7.766666666666719
 20
-252.71825451364191
 30
0.0
 40
6.5153645833333309
  1
A4
 41
0.7
 11
7.766666666666719
 21
-246.2028899303086
 31
0.0
 73
     3
  0
TEXT
  5
47
  8
HIBINO-BASE
 62
     7
 10
1.9166666666666701
 20
-241.909164513642
 30
0.0
 40
3.257682291666665
  1
PAPER SIZE
 41
0.7
 11
1.916666666666671
 21
-238.6514822219753
 31
0.0
 73
     3
  0
TEXT
  5
48
  8
HIBINO-BASE
 62
     7
 10
-165.18860334034181
 20
-268.67933205907377
 30
0.0
 40
7.2000883593749991
  1
Hibino Corporation
 41
0.7
 11
-165.18860334034181
 21
-261.47924369969883
 31
0.0
 73
     3
  0
TEXT
  5
49
  8
HIBINO-BASE
 62
     7
 10
100.58017665965851
 20
-268.67933205907377
 30
0.0
 40
7.2000883593749991
  1
ヒビノ株式会社
 41
0.7
 11
100.58017665965851
 21
-261.47924369969883
 31
0.0
 73
     3
  0
LINE
  5
4A
  8
SPEC
  6
CONTINUOUS
 62
     7
 10
-164.9999999999998
 20
243.32974548635801
 30
0.0
 11
162.6039999999999
 21
243.32974548635801
 31
0.0
  0
LINE
  5
4B
  8
SPEC
  6
CONTINUOUS
 62
     7
 10
-143.8419999999999
 20
220.82974548635801
 30
0.0
 11
162.6039999999999
 21
220.82974548635801
 31
0.0
  0
LINE
  5
4C
  8
SPEC
  6
CONTINUOUS
 62
     7
 10
-143.8419999999999
 20
228.32974548635801
 30
0.0
 11
162.6039999999999
 21
228.32974548635801
 31
0.0
  0
LINE
  5
4D
  8
SPEC
  6
CONTINUOUS
 62
     7
 10
-143.8419999999999
 20
235.82974548635801
 30
0.0
 11
162.6039999999999
 21
235.82974548635801
 31
0.0
  0
LINE
  5
4E
  8
SPEC
  6
CONTINUOUS
 62
     7
 10
-164.9999999999998
 20
243.32974548635801
 30
0.0
 11
-164.9999999999998
 21
145.82974548635801
 31
0.0
  0
TEXT
  5
4F
  8
SPEC
 62
     7
 10
-162.4999999999998
 20
246.1162854863579
 30
0.0
 40
4.8865234374999993
  1
仕様
 41
0.7
 11
-162.4999999999998
 21
251.00280892385791
 31
0.0
 73
     3
  0
LINE
  5
50
  8
SPEC
  6
CONTINUOUS
 62
     7
 10
-99.999999999999957
 20
243.32974548635801
 30
0.0
 11
-99.999999999999957
 21
145.82974548635801
 31
0.0
  0
LINE
  5
51
  8
SPEC
  6
CONTINUOUS
 62
     7
 10
162.6039999999999
 20
243.32974548635801
 30
0.0
 11
162.6039999999999
 21
145.82974548635801
 31
0.0
  0
LINE
  5
52
  8
SPEC
  6
CONTINUOUS
 62
     7
 10
-164.9999999999998
 20
213.32974548635801
 30
0.0
 11
162.6039999999999
 21
213.32974548635801
 31
0.0
  0
LINE
  5
53
  8
SPEC
  6
CONTINUOUS
 62
     7
 10
-143.8419999999999
 20
205.82974548635801
 30
0.0
 11
162.6039999999999
 21
205.82974548635801
 31
0.0
  0
LINE
  5
54
  8
SPEC
  6
CONTINUOUS
 62
     7
 10
-143.8419999999999
 20
198.32974548635801
 30
0.0
 11
162.6039999999999
 21
198.32974548635801
 31
0.0
  0
LINE
  5
55
  8
SPEC
  6
CONTINUOUS
 62
     7
 10
-164.9999999999998
 20
190.82974548635801
 30
0.0
 11
162.6039999999999
 21
190.82974548635801
 31
0.0
  0
LINE
  5
56
  8
SPEC
  6
CONTINUOUS
 62
     7
 10
-164.9999999999998
 20
183.32974548635801
 30
0.0
 11
162.6039999999999
 21
183.32974548635801
 31
0.0
  0
TEXT
  5
57
  8
SPEC
 62
     7
 10
-156.34999999999999
 20
135.72199999999989
 30
0.0
 40
3.800629340277776
  1
※本機とボディーパック型送信機を10cm以内に近付けないでください。ノイズの原因となります。
 41
0.7
 11
-156.34999999999999
 21
139.52262934027769
 31
0.0
 73
     3
  0
TEXT
  5
58
  8
SPEC
 62
     7
 10
-163.3864299477365
 20
237.86785230906949
 30
0.0
 40
3.800629340277776
  1
入力
 41
0.7
 11
-163.3864299477365
 21
241.6684816493472
 31
0.0
 73
     3
  0
TEXT
  5
59
  8
SPEC
 62
     7
 10
-98.19999999999996
 20
237.6192790417166
 30
0.0
 40
3.800629340277776
  1
2
 41
0.7
 11
-98.19999999999996
 21
241.41990838199439
 31
0.0
 73
     3
  0
TEXT
  5
5A
  8
SPEC
 62
     7
 10
-142.042
 20
230.36785230906941
 30
0.0
 40
3.800629340277776
  1
端子
 41
0.7
 11
-142.042
 21
234.1684816493472
 31
0.0
 73
     3
  0
TEXT
  5
5B
  8
SPEC
 62
     7
 10
-98.19999999999996
 20
230.11927904171679
 30
0.0
 40
3.800629340277776
  1
ミニXLR 3ピン(オス)
 41
0.7
 11
-98.19999999999996
 21
233.9199083819945
 31
0.0
 73
     3
  0
TEXT
  5
5C
  8
SPEC
 62
     7
 10
-142.042
 20
222.86785230906941
 30
0.0
 40
3.800629340277776
  1
インピーダンス
 41
0.7
 11
-142.042
 21
226.6684816493472
 31
0.0
 73
     3
  0
TEXT
  5
5D
  8
SPEC
 62
     7
 10
-98.19999999999996
 20
222.6192790417166
 30
0.0
 40
3.800629340277776
  1
5k\U+03A9
 41
0.7
 11
-98.19999999999996
 21
226.41990838199439
 31
0.0
 73
     3
  0
TEXT
  5
5E
  8
SPEC
 62
     7
 10
-142.042
 20
215.36785230906941
 30
0.0
 40
3.800629340277776
  1
ファンタム電源
 41
0.7
 11
-142.042
 21
219.1684816493472
 31
0.0
 73
     3
  0
TEXT
  5
5F
  8
SPEC
 62
     7
 10
-98.19999999999996
 20
215.11927904171671
 30
0.0
 40
3.800629340277776
  1
9V
 41
0.7
 11
-98.19999999999996
 21
218.9199083819945
 31
0.0
 73
     3
  0
TEXT
  5
60
  8
SPEC
 62
     7
 10
-163.3864299477365
 20
207.86785230906941
 30
0.0
 40
3.800629340277776
  1
出力
 41
0.7
 11
-163.3864299477365
 21
211.6684816493472
 31
0.0
 73
     3
  0
TEXT
  5
61
  8
SPEC
 62
     7
 10
-98.19999999999996
 20
207.6192790417166
 30
0.0
 40
3.800629340277776
  1
1
 41
0.7
 11
-98.19999999999996
 21
211.41990838199439
 31
0.0
 73
     3
  0
TEXT
  5
62
  8
SPEC
 62
     7
 10
-142.042
 20
200.36785230906941
 30
0.0
 40
3.800629340277776
  1
端子
 41
0.7
 11
-142.042
 21
204.1684816493472
 31
0.0
 73
     3
  0
TEXT
  5
63
  8
SPEC
 62
     7
 10
-98.19999999999996
 20
200.1192790417166
 30
0.0
 40
3.800629340277776
  1
3.5mmステレオ・ミニジャック
 41
0.7
 11
-98.19999999999996
 21
203.91990838199439
 31
0.0
 73
     3
  0
TEXT
  5
64
  8
SPEC
 62
     7
 10
-142.042
 20
192.86785230906941
 30
0.0
 40
3.800629340277776
  1
インピーダンス
 41
0.7
 11
-142.042
 21
196.6684816493472
 31
0.0
 73
     3
  0
TEXT
  5
65
  8
SPEC
 62
     7
 10
-98.19999999999996
 20
192.6192790417166
 30
0.0
 40
3.800629340277776
  1
200\U+03A9(アンバランス)
 41
0.7
 11
-98.19999999999996
 21
196.41990838199439
 31
0.0
 73
     3
  0
TEXT
  5
66
  8
SPEC
 62
     7
 10
-163.3864299477365
 20
185.36785230906941
 30
0.0
 40
3.800629340277776
  1
周波数特性
 41
0.7
 11
-163.3864299477365
 21
189.1684816493472
 31
0.0
 73
     3
  0
TEXT
  5
67
  8
SPEC
 62
     7
 10
-98.19999999999996
 20
185.1192790417166
 30
0.0
 40
3.800629340277776
  1
20Hz～20kHz
 41
0.7
 11
-98.19999999999996
 21
188.91990838199439
 31
0.0
 73
     3
  0
TEXT
  5
68
  8
SPEC
 62
     7
 10
-163.3864299477365
 20
177.86785230906941
 30
0.0
 40
3.800629340277776
  1
電源
 41
0.7
 11
-163.3864299477365
 21
181.6684816493472
 31
0.0
 73
     3
  0
TEXT
  5
69
  8
SPEC
 62
     7
 10
-98.19999999999996
 20
177.6192790417166
 30
0.0
 40
3.800629340277776
  1
単3形アルカリ乾電池\U+00D72または単3形リチウム乾電池\U+00D72または単3形ニッケル水素充電池\U+00D72
 41
0.7
 11
-98.19999999999996
 21
181.41990838199439
 31
0.0
 73
     3
  0
TEXT
  5
6A
  8
SPEC
 62
     7
 10
-163.3864299477365
 20
162.86785230906941
 30
0.0
 40
3.800629340277776
  1
寸法(W\U+00D7H\U+00D7D)
 41
0.7
 11
-163.3864299477365
 21
166.6684816493472
 31
0.0
 73
     3
  0
TEXT
  5
6B
  8
SPEC
 62
     7
 10
-98.19999999999996
 20
162.6192790417166
 30
0.0
 40
3.800629340277776
  1
64\U+00D787\U+00D720mm(除突起部)
 41
0.7
 11
-98.19999999999996
 21
166.41990838199439
 31
0.0
 73
     3
  0
LINE
  5
6C
  8
SPEC
  6
CONTINUOUS
 62
     7
 10
-164.9999999999998
 20
168.32974548635801
 30
0.0
 11
162.6039999999999
 21
168.32974548635801
 31
0.0
  0
LINE
  5
6D
  8
SPEC
  6
CONTINUOUS
 62
     7
 10
-164.9999999999998
 20
168.32974548635801
 30
0.0
 11
162.6039999999999
 21
168.32974548635801
 31
0.0
  0
TEXT
  5
6E
  8
SPEC
 62
     7
 10
-98.19999999999996
 20
170.1192790417166
 30
0.0
 40
3.800629340277776
  1
※電池寿命は使用環境により異なる。
 41
0.7
 11
-98.19999999999996
 21
173.91990838199439
 31
0.0
 73
     3
  0
LINE
  5
6F
  8
SPEC
  6
CONTINUOUS
 62
     7
 10
-164.9999999999998
 20
160.82974548635801
 30
0.0
 11
162.6039999999999
 21
160.82974548635801
 31
0.0
  0
LINE
  5
70
  8
SPEC
  6
CONTINUOUS
 62
     7
 10
-164.9999999999998
 20
153.32974548635801
 30
0.0
 11
162.6039999999999
 21
153.32974548635801
 31
0.0
  0
LINE
  5
71
  8
SPEC
  6
CONTINUOUS
 62
     7
 10
-164.9999999999998
 20
145.82974548635801
 30
0.0
 11
162.6039999999999
 21
145.82974548635801
 31
0.0
  0
LINE
  5
72
  8
SPEC
  6
CONTINUOUS
 62
     7
 10
-164.9999999999998
 20
160.82974548635801
 30
0.0
 11
162.6039999999999
 21
160.82974548635801
 31
0.0
  0
TEXT
  5
73
  8
SPEC
 62
     7
 10
-163.32428663367639
 20
155.1192790528288
 30
0.0
 40
3.800629340277776
  1
質量
 41
0.7
 11
-163.32428663367639
 21
158.91990839310651
 31
0.0
 73
     3
  0
TEXT
  5
74
  8
SPEC
 62
     7
 10
-98.19999999999996
 20
155.1192790417166
 30
0.0
 40
3.800629340277776
  1
70g
 41
0.7
 11
-98.19999999999996
 21
158.91990838199439
 31
0.0
 73
     3
  0
TEXT
  5
75
  8
SPEC
 62
     7
 10
-163.3864299477365
 20
147.86784786462499
 30
0.0
 40
3.800629340277776
  1
付属品
 41
0.7
 11
-163.3864299477365
 21
151.66847720490281
 31
0.0
 73
     3
  0
TEXT
  5
76
  8
SPEC
 62
     7
 10
-98.262143314060125
 20
147.8678478535129
 30
0.0
 40
3.800629340277776
  1
ボディーパック型送信機用接続ケーブル(3.5mmステレオ・ミニフォーン→ミニXLR 3ピン(メス))、ストラップ
 41
0.7
 11
-98.262143314060125
 21
151.66847719379069
 31
0.0
 73
     3
  0
TEXT
  5
77
  8
SPEC
 62
     7
 10
94.999999999999957
 20
-226.86238691364201
 30
0.0
 40
3.257687421875
  1
ポータブル・ミキサー
 41
0.7
 11
94.999999999999957
 21
-223.60469949176701
 31
0.0
 73
     3
  0
LINE
  5
78
  8
SPEC
  6
CONTINUOUS
 62
     7
 10
-143.8419999999999
 20
243.32974548635801
 30
0.0
 11
-143.8419999999999
 21
190.82974548635801
 31
0.0
  0
TEXT
  5
79
  8
SPEC
 62
     7
 10
-142.042
 20
237.6192790417166
 30
0.0
 40
3.800629340277776
  1
チャンネル数
 41
0.7
 11
-142.042
 21
241.41990838199439
 31
0.0
 73
     3
  0
TEXT
  5
7A
  8
SPEC
 62
     7
 10
-142.042
 20
207.6192790417166
 30
0.0
 40
3.800629340277776
  1
チャンネル数
 41
0.7
 11
-142.042
 21
211.41990838199439
 31
0.0
 73
     3
  0
TEXT
  5
7B
  8
DIMNSIONS
 62
     7
 10
-40.0
 20
-232.13127451364201
 30
0.0
 40
4.8865234374999993
  1
(単位：mm)
 41
0.7
 11
-40.0
 21
-227.24475107614199
 31
0.0
 73
     3
  0
LINE
  5
7C
  8
DIMNSIONS
  6
CONTINUOUS
 62
     7
 10
-82.0
 20
-171.95660286096239
 30
0.0
 11
-82.0
 21
-204.12799999999999
 31
0.0
  0
LINE
  5
7D
  8
DIMNSIONS
  6
CONTINUOUS
 62
     7
 10
-18.0
 20
-172.03221885370121
 30
0.0
 11
-18.0
 21
-204.12799999999999
 31
0.0
  0
LINE
  5
7E
  8
DIMNSIONS
  6
CONTINUOUS
 62
     7
 10
-82.0
 20
-200.12799999999999
 30
0.0
 11
-18.0
 21
-200.12799999999999
 31
0.0
  0
LINE
  5
7F
  8
DIMNSIONS
  6
CONTINUOUS
 62
     7
 10
-82.0
 20
-200.12799999999999
 30
0.0
 11
-76.998754882812506
 21
-198.7879204096995
 31
0.0
  0
LINE
  5
80
  8
DIMNSIONS
  6
CONTINUOUS
 62
     7
 10
-82.0
 20
-200.12799999999999
 30
0.0
 11
-76.998754882812506
 21
-201.4680795903005
 31
0.0
  0
LINE
  5
81
  8
DIMNSIONS
  6
CONTINUOUS
 62
     7
 10
-18.0
 20
-200.12799999999999
 30
0.0
 11
-23.001245117187501
 21
-201.4680795903005
 31
0.0
  0
LINE
  5
82
  8
DIMNSIONS
  6
CONTINUOUS
 62
     7
 10
-18.0
 20
-200.12799999999999
 30
0.0
 11
-23.001245117187501
 21
-198.7879204096995
 31
0.0
  0
TEXT
  5
83
  8
DIMNSIONS
 62
     7
 10
-57.055556901295979
 20
-198.1402220750318
 30
0.0
 40
5.4294712951653743
  1
64.0
 41
0.7
 11
-57.055556901295979
 21
-192.71075077986649
 31
0.0
 73
     3
  0
LINE
  5
84
  8
DIMNSIONS
  6
CONTINUOUS
 62
     7
 10
-81.0
 20
-172.6039999999999
 30
0.0
 11
-116.572
 21
-172.6039999999999
 31
0.0
  0
LINE
  5
85
  8
DIMNSIONS
  6
CONTINUOUS
 62
     7
 10
-74.756592725696763
 20
-152.6039999999999
 30
0.0
 11
-116.572
 21
-152.6039999999999
 31
0.0
  0
LINE
  5
86
  8
DIMNSIONS
  6
CONTINUOUS
 62
     7
 10
-112.572
 20
-172.6039999999999
 30
0.0
 11
-112.572
 21
-152.6039999999999
 31
0.0
  0
LINE
  5
87
  8
DIMNSIONS
  6
CONTINUOUS
 62
     7
 10
-112.572
 20
-172.6039999999999
 30
0.0
 11
-113.91207959030039
 21
-167.60275488281241
 31
0.0
  0
LINE
  5
88
  8
DIMNSIONS
  6
CONTINUOUS
 62
     7
 10
-112.572
 20
-172.6039999999999
 30
0.0
 11
-111.2319204096995
 21
-167.60275488281241
 31
0.0
  0
LINE
  5
89
  8
DIMNSIONS
  6
CONTINUOUS
 62
     7
 10
-112.572
 20
-152.6039999999999
 30
0.0
 11
-111.2319204096995
 21
-157.60524511718739
 31
0.0
  0
LINE
  5
8A
  8
DIMNSIONS
  6
CONTINUOUS
 62
     7
 10
-112.572
 20
-152.6039999999999
 30
0.0
 11
-113.91207959030039
 21
-157.60524511718739
 31
0.0
  0
TEXT
  5
8B
  8
DIMNSIONS
 62
     7
 10
-114.5597779249681
 20
-169.6595569012959
 30
0.0
 40
5.4294712951653743
  1
20.0
 50
90.0
 41
0.7
 11
-119.9892492201335
 21
-169.6595569012959
 31
0.0
 73
     3
  0
LINE
  5
8C
  8
DIMNSIONS
  6
CONTINUOUS
 62
     7
 10
-81.0
 20
-125.0
 30
0.0
 11
-116.572
 21
-125.0
 31
0.0
  0
LINE
  5
8D
  8
DIMNSIONS
  6
CONTINUOUS
 62
     7
 10
-81.0
 20
-37.700000000000003
 30
0.0
 11
-116.572
 21
-37.700000000000003
 31
0.0
  0
LINE
  5
8E
  8
DIMNSIONS
  6
CONTINUOUS
 62
     7
 10
-112.572
 20
-125.0
 30
0.0
 11
-112.572
 21
-37.700000000000003
 31
0.0
  0
LINE
  5
8F
  8
DIMNSIONS
  6
CONTINUOUS
 62
     7
 10
-112.572
 20
-125.0
 30
0.0
 11
-113.91207959030039
 21
-119.99875488281251
 31
0.0
  0
LINE
  5
90
  8
DIMNSIONS
  6
CONTINUOUS
 62
     7
 10
-112.572
 20
-125.0
 30
0.0
 11
-111.2319204096995
 21
-119.99875488281251
 31
0.0
  0
LINE
  5
91
  8
DIMNSIONS
  6
CONTINUOUS
 62
     7
 10
-112.572
 20
-37.700000000000003
 30
0.0
 11
-111.2319204096995
 21
-42.70124511718749
 31
0.0
  0
LINE
  5
92
  8
DIMNSIONS
  6
CONTINUOUS
 62
     7
 10
-112.572
 20
-37.700000000000003
 30
0.0
 11
-113.91207959030039
 21
-42.70124511718749
 31
0.0
  0
TEXT
  5
93
  8
DIMNSIONS
 62
     7
 10
-114.5597779249681
 20
-88.405556901295981
 30
0.0
 40
5.4294712951653743
  1
87.3
 50
90.0
 41
0.7
 11
-119.9892492201335
 21
-88.405556901295981
 31
0.0
 73
     3
  0
LINE
  5
94
  8
DIMNSIONS
  6
CONTINUOUS
 62
     7
 10
-81.0
 20
-37.700000000000003
 30
0.0
 11
-116.572
 21
-37.700000000000003
 31
0.0
  0
LINE
  5
95
  8
DIMNSIONS
  6
CONTINUOUS
 62
     7
 10
-79.5
 20
-36.499999999999993
 30
0.0
 11
-116.572
 21
-36.499999999999993
 31
0.0
  0
LINE
  5
96
  8
DIMNSIONS
  6
CONTINUOUS
 62
     7
 10
-112.572
 20
-36.499999999999993
 30
0.0
 11
-112.572
 21
-37.700000000000003
 31
0.0
  0
LINE
  5
97
  8
DIMNSIONS
  6
CONTINUOUS
 62
     7
 10
-112.572
 20
-37.700000000000003
 30
0.0
 11
-112.572
 21
-47.700000000000003
 31
0.0
  0
LINE
  5
98
  8
DIMNSIONS
  6
CONTINUOUS
 62
     7
 10
-112.572
 20
-37.700000000000003
 30
0.0
 11
-111.2319204096995
 21
-42.70124511718749
 31
0.0
  0
LINE
  5
99
  8
DIMNSIONS
  6
CONTINUOUS
 62
     7
 10
-112.572
 20
-37.700000000000003
 30
0.0
 11
-113.91207959030039
 21
-42.70124511718749
 31
0.0
  0
LINE
  5
9A
  8
DIMNSIONS
  6
CONTINUOUS
 62
     7
 10
-112.572
 20
-36.499999999999993
 30
0.0
 11
-112.572
 21
-20.686666666666671
 31
0.0
  0
LINE
  5
9B
  8
DIMNSIONS
  6
CONTINUOUS
 62
     7
 10
-112.572
 20
-36.499999999999993
 30
0.0
 11
-113.91207959030039
 21
-31.498754882812481
 31
0.0
  0
LINE
  5
9C
  8
DIMNSIONS
  6
CONTINUOUS
 62
     7
 10
-112.572
 20
-36.499999999999993
 30
0.0
 11
-111.2319204096995
 21
-31.498754882812481
 31
0.0
  0
TEXT
  5
9D
  8
DIMNSIONS
 62
     7
 10
-114.5597777777778
 20
-31.27
 30
0.0
 40
5.4294704861111107
  1
1.2
 50
90.0
 41
0.7
 11
-119.9892482638889
 21
-31.27
 31
0.0
 73
     3
  0
LINE
  5
9E
  8
DIMNSIONS
  6
CONTINUOUS
 62
     7
 10
-74.756592725696763
 20
-152.6039999999999
 30
0.0
 11
-116.572
 21
-152.6039999999999
 31
0.0
  0
LINE
  5
9F
  8
DIMNSIONS
  6
CONTINUOUS
 62
     7
 10
-69.0
 20
-150.904
 30
0.0
 11
-116.572
 21
-150.904
 31
0.0
  0
LINE
  5
A0
  8
DIMNSIONS
  6
CONTINUOUS
 62
     7
 10
-112.572
 20
-150.904
 30
0.0
 11
-112.572
 21
-152.6039999999999
 31
0.0
  0
LINE
  5
A1
  8
DIMNSIONS
  6
CONTINUOUS
 62
     7
 10
-112.572
 20
-152.6039999999999
 30
0.0
 11
-112.572
 21
-162.6039999999999
 31
0.0
  0
LINE
  5
A2
  8
DIMNSIONS
  6
CONTINUOUS
 62
     7
 10
-112.572
 20
-152.6039999999999
 30
0.0
 11
-111.2319204096995
 21
-157.60524511718739
 31
0.0
  0
LINE
  5
A3
  8
DIMNSIONS
  6
CONTINUOUS
 62
     7
 10
-112.572
 20
-152.6039999999999
 30
0.0
 11
-113.91207959030039
 21
-157.60524511718739
 31
0.0
  0
LINE
  5
A4
  8
DIMNSIONS
  6
CONTINUOUS
 62
     7
 10
-112.572
 20
-150.904
 30
0.0
 11
-112.572
 21
-139.60866666666661
 31
0.0
  0
LINE
  5
A5
  8
DIMNSIONS
  6
CONTINUOUS
 62
     7
 10
-112.572
 20
-150.904
 30
0.0
 11
-113.91207959030039
 21
-145.9027548828125
 31
0.0
  0
LINE
  5
A6
  8
DIMNSIONS
  6
CONTINUOUS
 62
     7
 10
-112.572
 20
-150.904
 30
0.0
 11
-111.2319204096995
 21
-145.9027548828125
 31
0.0
  0
TEXT
  5
A7
  8
DIMNSIONS
 62
     7
 10
-114.5597777777778
 20
-150.19199999999981
 30
0.0
 40
5.4294704861111107
  1
1.7
 50
90.0
 41
0.7
 11
-119.9892482638889
 21
-150.19199999999981
 31
0.0
 73
     3
  0
TEXT
  5
A8
  8
DATA
 62
     7
 10
99.999999999999957
 20
-234.40847451364201
 30
0.0
 40
4.8865234374999993
  1
B23 L
 41
0.7
 11
99.999999999999957
 21
-229.52195107614199
 31
0.0
 73
     3
  0
TEXT
  5
A9
  8
DATA
 62
     7
 10
99.999999999999957
 20
-219.90847451364201
 30
0.0
 40
4.8865234374999993
  1
AKG
 41
0.7
 11
99.999999999999957
 21
-215.02195107614199
 31
0.0
 73
     3
  0
TEXT
  5
AA
  8
DATA
 62
     7
 10
-174.99999999999989
 20
-240.9176989580865
 30
0.0
 40
3.800629340277776
  1
※仕様及び外観は予告なく変更されることがあります。
 41
0.7
 11
-174.99999999999989
 21
-237.11706961780871
 31
0.0
 73
     3
  0
TEXT
  5
AB
  8
DATA
 62
     7
 10
-174.99999999999989
 20
-245.85658784697529
 30
0.0
 40
3.800629340277776
  1
　また、同一商品でも若干の個体差があることがあります。ご了承ください。
 41
0.7
 11
-174.99999999999989
 21
-242.05595850669761
 31
0.0
 73
     3
  0
LINE
  5
AC
  8
DATA
  6
CONTINUOUS
 62
     7
 10
-82.0
 20
-120.0
 30
0.0
 11
-82.0
 21
-81.420759220056127
 31
0.0
  0
LINE
  5
AD
  8
DATA
  6
CONTINUOUS
 62
     7
 10
-82.0
 20
-58.979240779943893
 30
0.0
 11
-82.0
 21
-42.700000000000003
 31
0.0
  0
LINE
  5
AE
  8
DATA
  6
CONTINUOUS
 62
     7
 10
-23.0
 20
-125.0
 30
0.0
 11
-77.0
 21
-125.0
 31
0.0
  0
LINE
  5
AF
  8
DATA
  6
CONTINUOUS
 62
     7
 10
-18.0
 20
-42.700000000000003
 30
0.0
 11
-18.0
 21
-58.979240779943893
 31
0.0
  0
LINE
  5
B0
  8
DATA
  6
CONTINUOUS
 62
     7
 10
-18.0
 20
-81.420759220056127
 30
0.0
 11
-18.0
 21
-120.0
 31
0.0
  0
LINE
  5
B1
  8
DATA
  6
CONTINUOUS
 62
     7
 10
-77.0
 20
-37.700000000000003
 30
0.0
 11
-23.0
 21
-37.700000000000003
 31
0.0
  0
ARC
  5
B2
  8
DATA
  6
CONTINUOUS
 62
     7
 10
-69.5
 20
-50.350000000000001
 30
0.0
 40
4.0000000000000071
 50
90.0
 51
180.0
  0
LINE
  5
B3
  8
DATA
  6
CONTINUOUS
 62
     7
 10
-73.5
 20
-112.3499999999998
 30
0.0
 11
-73.5
 21
-50.350000000000001
 31
0.0
  0
ARC
  5
B4
  8
DATA
  6
CONTINUOUS
 62
     7
 10
-69.5
 20
-112.3499999999998
 30
0.0
 40
4.0
 50
180.0
 51
270.0
  0
LINE
  5
B5
  8
DATA
  6
CONTINUOUS
 62
     7
 10
-30.500000000000011
 20
-116.34999999999999
 30
0.0
 11
-69.5
 21
-116.34999999999999
 31
0.0
  0
ARC
  5
B6
  8
DATA
  6
CONTINUOUS
 62
     7
 10
-30.499999999999989
 20
-112.34999999999999
 30
0.0
 40
3.999999999999984
 50
269.9999999999996
 51
0.0000000000004547
  0
LINE
  5
B7
  8
DATA
  6
CONTINUOUS
 62
     7
 10
-26.5
 20
-50.350000000000001
 30
0.0
 11
-26.5
 21
-112.34999999999999
 31
0.0
  0
ARC
  5
B8
  8
DATA
  6
CONTINUOUS
 62
     7
 10
-30.500000000000011
 20
-50.350000000000009
 30
0.0
 40
4.0000000000000089
 50
0.0000000000001137
 51
89.999999999999915
  0
LINE
  5
B9
  8
DATA
  6
CONTINUOUS
 62
     7
 10
-69.5
 20
-46.350000000000001
 30
0.0
 11
-30.5
 21
-46.350000000000001
 31
0.0
  0
ARC
  5
BA
  8
DATA
  6
CONTINUOUS
 62
     7
 10
-77.0
 20
-42.700000000000003
 30
0.0
 40
5.0
 50
90.0
 51
180.0
  0
ARC
  5
BB
  8
DATA
  6
CONTINUOUS
 62
     7
 10
-23.0
 20
-42.700000000000003
 30
0.0
 40
5.0
 50
0.0
 51
90.0
  0
ARC
  5
BC
  8
DATA
  6
CONTINUOUS
 62
     7
 10
-77.0
 20
-120.0
 30
0.0
 40
5.0
 50
180.0
 51
270.0
  0
ARC
  5
BD
  8
DATA
  6
CONTINUOUS
 62
     7
 10
-23.0
 20
-120.0
 30
0.0
 40
5.0
 50
270.0
 51
0.0
  0
LINE
  5
BE
  8
DATA
  6
CONTINUOUS
 62
     7
 10
-76.0
 20
-37.700000000000003
 30
0.0
 11
-76.0
 21
-37.0
 31
0.0
  0
LINE
  5
BF
  8
DATA
  6
CONTINUOUS
 62
     7
 10
-64.0
 20
-37.0
 30
0.0
 11
-64.0
 21
-37.700000000000003
 31
0.0
  0
LINE
  5
C0
  8
DATA
  6
CONTINUOUS
 62
     7
 10
-36.0
 20
-37.700000000000003
 30
0.0
 11
-36.0
 21
-37.0
 31
0.0
  0
LINE
  5
C1
  8
DATA
  6
CONTINUOUS
 62
     7
 10
-24.0
 20
-37.0
 30
0.0
 11
-24.0
 21
-37.700000000000003
 31
0.0
  0
LINE
  5
C2
  8
DATA
  6
CONTINUOUS
 62
     7
 10
-75.5
 20
-36.499999999999993
 30
0.0
 11
-64.5
 21
-36.499999999999993
 31
0.0
  0
LINE
  5
C3
  8
DATA
  6
CONTINUOUS
 62
     7
 10
-35.500000000000007
 20
-36.499999999999993
 30
0.0
 11
-24.5
 21
-36.499999999999993
 31
0.0
  0
LINE
  5
C4
  8
DATA
  6
CONTINUOUS
 62
     7
 10
-76.0
 20
-37.0
 30
0.0
 11
-75.5
 21
-36.499999999999993
 31
0.0
  0
LINE
  5
C5
  8
DATA
  6
CONTINUOUS
 62
     7
 10
-64.0
 20
-37.0
 30
0.0
 11
-64.5
 21
-36.499999999999993
 31
0.0
  0
LINE
  5
C6
  8
DATA
  6
CONTINUOUS
 62
     7
 10
-35.5
 20
-36.499999999999993
 30
0.0
 11
-36.0
 21
-37.0
 31
0.0
  0
LINE
  5
C7
  8
DATA
  6
CONTINUOUS
 62
     7
 10
-24.0
 20
-37.0
 30
0.0
 11
-24.5
 21
-36.499999999999993
 31
0.0
  0
POLYLINE
  5
C8
  8
DATA
  6
CONTINUOUS
 62
     7
 66
     1
 10
0.0
 20
0.0
 30
0.0
 70
     1
  0
VERTEX
  5
3FF
  8
DATA
  6
CONTINUOUS
 62
     7
 10
-53.25
 20
-83.349999999999994
 30
0.0
  0
VERTEX
  5
400
  8
DATA
  6
CONTINUOUS
 62
     7
 10
-46.749999999999993
 20
-83.349999999999994
 30
0.0
  0
VERTEX
  5
401
  8
DATA
  6
CONTINUOUS
 62
     7
 10
-46.749999999999993
 20
-85.34999999999998
 30
0.0
  0
VERTEX
  5
402
  8
DATA
  6
CONTINUOUS
 62
     7
 10
-53.25
 20
-85.34999999999998
 30
0.0
  0
SEQEND
  5
403
  8
DATA
  6
CONTINUOUS
 62
     7
  0
LINE
  5
CF
  8
DATA
  6
CONTINUOUS
 62
     7
 10
-49.25
 20
-83.349999999999994
 30
0.0
 11
-49.25
 21
-85.34999999999998
 31
0.0
  0
CIRCLE
  5
D0
  8
DATA
  6
CONTINUOUS
 62
     7
 10
-50.0
 20
-89.850000000000023
 30
0.0
 40
1.0
  0
CIRCLE
  5
D1
  8
DATA
  6
CONTINUOUS
 62
     7
 10
-55.028774683523622
 20
-84.34999999999998
 30
0.0
 40
0.8999999999999984
  0
LINE
  5
D2
  8
DATA
  6
CONTINUOUS
 62
     7
 10
-44.971225316476357
 20
-85.25
 30
0.0
 11
-44.971225316476357
 21
-83.450000000000003
 31
0.0
  0
TEXT
  5
D3
  8
DATA
 62
     7
 10
-53.930546531876431
 20
-103.239463818079
 30
0.0
 40
4.3435770361322978
  1
AKG
 41
0.7
 11
-53.930546531876431
 21
-98.895886781946686
 31
0.0
 73
     3
  0
TEXT
  5
D4
  8
DATA
 62
     7
 10
-54.926165977715378
 20
-108.42647629579341
 30
0.0
 40
3.040503925292608
  1
B23 L
 41
0.7
 11
-54.926165977715378
 21
-105.3859723705008
 31
0.0
 73
     3
  0
POLYLINE
  5
D5
  8
DATA
  6
CONTINUOUS
 62
     7
 66
     1
 10
0.0
 20
0.0
 30
0.0
 70
     1
  0
VERTEX
  5
404
  8
DATA
  6
CONTINUOUS
 62
     7
 10
-52.0
 20
-74.350000000000023
 30
0.0
  0
VERTEX
  5
405
  8
DATA
  6
CONTINUOUS
 62
     7
 10
-48.0
 20
-74.350000000000023
 30
0.0
  0
VERTEX
  5
406
  8
DATA
  6
CONTINUOUS
 62
     7
 10
-48.0
 20
-76.350000000000023
 30
0.0
  0
VERTEX
  5
407
  8
DATA
  6
CONTINUOUS
 62
     7
 10
-52.0
 20
-76.350000000000023
 30
0.0
  0
SEQEND
  5
408
  8
DATA
  6
CONTINUOUS
 62
     7
  0
LINE
  5
DC
  8
DATA
  6
CONTINUOUS
 62
     7
 10
-50.0
 20
-74.350000000000023
 30
0.0
 11
-50.0
 21
-76.350000000000023
 31
0.0
  0
TEXT
  5
DD
  8
DATA
 62
     7
 10
-46.883236307515887
 20
-76.248063672874594
 30
0.0
 40
1.6288411458333321
  1
STEREO
 41
0.7
 11
-46.883236307515887
 21
-74.619222527041259
 31
0.0
 73
     3
  0
TEXT
  5
DE
  8
DATA
 62
     7
 10
-57.688318954907828
 20
-76.248063672874594
 30
0.0
 40
1.6288411458333321
  1
MONO
 41
0.7
 11
-57.688318954907828
 21
-74.619222527041259
 31
0.0
 73
     3
  0
TEXT
  5
DF
  8
DATA
 62
     7
 10
-51.587499999999999
 20
-51.405782786162511
 30
0.0
 40
1.6288411458333321
  1
OUT
 41
0.7
 11
-51.587499999999999
 21
-49.776941640329177
 31
0.0
 73
     3
  0
POLYLINE
  5
E0
  8
DATA
  6
CONTINUOUS
 62
     7
 66
     1
 10
0.0
 20
0.0
 30
0.0
 70
     1
  0
VERTEX
  5
409
  8
DATA
  6
CONTINUOUS
 62
     7
 10
-39.0
 20
-57.371186417792963
 30
0.0
  0
VERTEX
  5
40A
  8
DATA
  6
CONTINUOUS
 62
     7
 10
-35.0
 20
-57.371186417792963
 30
0.0
  0
VERTEX
  5
40B
  8
DATA
  6
CONTINUOUS
 62
     7
 10
-35.0
 20
-59.371186417792963
 30
0.0
  0
VERTEX
  5
40C
  8
DATA
  6
CONTINUOUS
 62
     7
 10
-39.0
 20
-59.371186417792963
 30
0.0
  0
SEQEND
  5
40D
  8
DATA
  6
CONTINUOUS
 62
     7
  0
LINE
  5
E7
  8
DATA
  6
CONTINUOUS
 62
     7
 10
-37.0
 20
-57.371186417792963
 30
0.0
 11
-37.0
 21
-59.371186417792963
 31
0.0
  0
POLYLINE
  5
E8
  8
DATA
  6
CONTINUOUS
 62
     7
 66
     1
 10
0.0
 20
0.0
 30
0.0
 70
     1
  0
VERTEX
  5
40E
  8
DATA
  6
CONTINUOUS
 62
     7
 10
-65.0
 20
-57.371186417792963
 30
0.0
  0
VERTEX
  5
40F
  8
DATA
  6
CONTINUOUS
 62
     7
 10
-61.0
 20
-57.371186417792963
 30
0.0
  0
VERTEX
  5
410
  8
DATA
  6
CONTINUOUS
 62
     7
 10
-61.0
 20
-59.371186417792963
 30
0.0
  0
VERTEX
  5
411
  8
DATA
  6
CONTINUOUS
 62
     7
 10
-65.0
 20
-59.371186417792963
 30
0.0
  0
SEQEND
  5
412
  8
DATA
  6
CONTINUOUS
 62
     7
  0
LINE
  5
EF
  8
DATA
  6
CONTINUOUS
 62
     7
 10
-63.0
 20
-57.371186417792963
 30
0.0
 11
-63.0
 21
-59.371186417792963
 31
0.0
  0
CIRCLE
  5
F0
  8
DATA
  6
CONTINUOUS
 62
     7
 10
-37.0
 20
-53.850000000000001
 30
0.0
 40
1.0
  0
CIRCLE
  5
F1
  8
DATA
  6
CONTINUOUS
 62
     7
 10
-63.0
 20
-53.850000000000001
 30
0.0
 40
1.0
  0
TEXT
  5
F2
  8
DATA
 62
     7
 10
-68.724575694751351
 20
-59.186859637294162
 30
0.0
 40
1.6288411458333321
  1
MIC
 41
0.7
 11
-68.724575694751351
 21
-57.558018491460821
 31
0.0
 73
     3
  0
TEXT
  5
F3
  8
DATA
 62
     7
 10
-60.262710773853847
 20
-59.186859637294162
 30
0.0
 40
1.6288411458333321
  1
LINE
 41
0.7
 11
-60.262710773853847
 21
-57.558018491460821
 31
0.0
 73
     3
  0
TEXT
  5
F4
  8
DATA
 62
     7
 10
-42.724575694751323
 20
-59.186859637294162
 30
0.0
 40
1.6288411458333321
  1
MIC
 41
0.7
 11
-42.724575694751323
 21
-57.558018491460821
 31
0.0
 73
     3
  0
TEXT
  5
F5
  8
DATA
 62
     7
 10
-34.262710773853861
 20
-59.186859637294162
 30
0.0
 40
1.6288411458333321
  1
LINE
 41
0.7
 11
-34.262710773853861
 21
-57.558018491460821
 31
0.0
 73
     3
  0
LINE
  5
F6
  8
DATA
  6
CONTINUOUS
 62
     7
 10
-50.0
 20
-47.927966989262899
 30
0.0
 11
-50.5
 21
-48.927966989262877
 31
0.0
  0
LINE
  5
F7
  8
DATA
  6
CONTINUOUS
 62
     7
 10
-49.5
 20
-48.927966989262877
 30
0.0
 11
-50.0
 21
-47.927966989262899
 31
0.0
  0
LINE
  5
F8
  8
DATA
  6
CONTINUOUS
 62
     7
 10
-50.5
 20
-48.927966989262877
 30
0.0
 11
-49.5
 21
-48.927966989262877
 31
0.0
  0
TEXT
  5
F9
  8
DATA
 62
     7
 10
-70.1118637939488
 20
-51.405782786162511
 30
0.0
 40
1.6288411458333321
  1
IN L
 41
0.7
 11
-70.1118637939488
 21
-49.776941640329177
 31
0.0
 73
     3
  0
LINE
  5
FA
  8
DATA
  6
CONTINUOUS
 62
     7
 10
-68.0
 20
-47.927966989262899
 30
0.0
 11
-68.5
 21
-48.927966989262877
 31
0.0
  0
LINE
  5
FB
  8
DATA
  6
CONTINUOUS
 62
     7
 10
-67.5
 20
-48.927966989262877
 30
0.0
 11
-68.0
 21
-47.927966989262899
 31
0.0
  0
LINE
  5
FC
  8
DATA
  6
CONTINUOUS
 62
     7
 10
-68.5
 20
-48.927966989262877
 30
0.0
 11
-67.5
 21
-48.927966989262877
 31
0.0
  0
TEXT
  5
FD
  8
DATA
 62
     7
 10
-34.04194859433504
 20
-51.405782786162511
 30
0.0
 40
1.6288411458333321
  1
IN R
 41
0.7
 11
-34.04194859433504
 21
-49.776941640329177
 31
0.0
 73
     3
  0
LINE
  5
FE
  8
DATA
  6
CONTINUOUS
 62
     7
 10
-32.0
 20
-47.927966989262899
 30
0.0
 11
-32.5
 21
-48.927966989262877
 31
0.0
  0
LINE
  5
FF
  8
DATA
  6
CONTINUOUS
 62
     7
 10
-31.5
 20
-48.927966989262877
 30
0.0
 11
-32.0
 21
-47.927966989262899
 31
0.0
  0
LINE
  5
100
  8
DATA
  6
CONTINUOUS
 62
     7
 10
-32.5
 20
-48.927966989262877
 30
0.0
 11
-31.5
 21
-48.927966989262877
 31
0.0
  0
LINE
  5
101
  8
DATA
  6
CONTINUOUS
 62
     7
 10
-21.0
 20
-61.420759220056127
 30
0.0
 11
-21.0
 21
-78.979240779943893
 31
0.0
  0
LINE
  5
102
  8
DATA
  6
CONTINUOUS
 62
     7
 10
-79.0
 20
-78.979240779943893
 30
0.0
 11
-79.0
 21
-61.420759220056127
 31
0.0
  0
LINE
  5
103
  8
DATA
  6
CONTINUOUS
 62
     7
 10
-79.683772233983177
 20
-60.472075922005601
 30
0.0
 11
-81.316227766016823
 21
-59.927924077994398
 31
0.0
  0
LINE
  5
104
  8
DATA
  6
CONTINUOUS
 62
     7
 10
-79.683772233983177
 20
-79.92792407799439
 30
0.0
 11
-81.316227766016823
 21
-80.472075922005615
 31
0.0
  0
LINE
  5
105
  8
DATA
  6
CONTINUOUS
 62
     7
 10
-20.316227766016841
 20
-60.472075922005601
 30
0.0
 11
-18.683772233983159
 21
-59.927924077994398
 31
0.0
  0
LINE
  5
106
  8
DATA
  6
CONTINUOUS
 62
     7
 10
-20.316227766016841
 20
-79.92792407799439
 30
0.0
 11
-18.683772233983159
 21
-80.472075922005615
 31
0.0
  0
ARC
  5
107
  8
DATA
  6
CONTINUOUS
 62
     7
 10
-80.999999999999986
 20
-58.979240779943893
 30
0.0
 40
1.0000000000000131
 50
180.0
 51
251.56505117707729
  0
ARC
  5
108
  8
DATA
  6
CONTINUOUS
 62
     7
 10
-80.000000000000014
 20
-61.420759220056127
 30
0.0
 40
1.0000000000000131
 50
0.0
 51
71.565051177077237
  0
ARC
  5
109
  8
DATA
  6
CONTINUOUS
 62
     7
 10
-81.0
 20
-81.420759220056155
 30
0.0
 40
1.0000000000000091
 50
108.4349488229218
 51
179.9999999999992
  0
ARC
  5
10A
  8
DATA
  6
CONTINUOUS
 62
     7
 10
-80.0
 20
-78.979240779943851
 30
0.0
 40
1.0000000000000091
 50
288.43494882292168
 51
359.9999999999992
  0
ARC
  5
10B
  8
DATA
  6
CONTINUOUS
 62
     7
 10
-20.0
 20
-61.420759220056127
 30
0.0
 40
0.9999999999999975
 50
108.434948822922
 51
180.0
  0
ARC
  5
10C
  8
DATA
  6
CONTINUOUS
 62
     7
 10
-20.0
 20
-78.979240779943893
 30
0.0
 40
1.0
 50
180.0
 51
251.565051177078
  0
ARC
  5
10D
  8
DATA
  6
CONTINUOUS
 62
     7
 10
-19.0
 20
-58.979240779943893
 30
0.0
 40
0.9999999999999975
 50
288.43494882292191
 51
0.0
  0
ARC
  5
10E
  8
DATA
  6
CONTINUOUS
 62
     7
 10
-19.0
 20
-81.420759220056127
 30
0.0
 40
1.0
 50
0.0
 51
71.565051177077976
  0
ARC
  5
10F
  8
DATA
  6
CONTINUOUS
 62
     7
 10
-69.44672985023125
 20
-70.200000000000003
 30
0.0
 40
12.1616446256253
 50
141.76921670961639
 51
218.23078329038361
  0
ARC
  5
110
  8
DATA
  6
CONTINUOUS
 62
     7
 10
-30.422180115472958
 20
-70.200000000000003
 30
0.0
 40
12.161644625625261
 50
320.78196940883163
 51
39.218030591168421
  0
LINE
  5
111
  8
DATA
  6
CONTINUOUS
 62
     7
 10
-84.0
 20
-84.593507287524858
 30
0.0
 11
-84.0
 21
-51.700000000000003
 31
0.0
  0
LINE
  5
112
  8
DATA
  6
CONTINUOUS
 62
     7
 10
-82.019999999999982
 20
-86.699999999999989
 30
0.0
 11
-82.646121663241203
 21
-86.486263689255011
 31
0.0
  0
ARC
  5
113
  8
DATA
  6
CONTINUOUS
 62
     7
 10
-82.000000000000014
 20
-84.593507287524858
 30
0.0
 40
1.999999999999984
 50
180.0000000000004
 51
251.1518676220513
  0
LINE
  5
114
  8
DATA
  6
CONTINUOUS
 62
     7
 10
-82.0
 20
-81.420759220056127
 30
0.0
 11
-82.0
 21
-58.687059812665751
 31
0.0
  0
ARC
  5
115
  8
DATA
  6
CONTINUOUS
 62
     7
 10
-82.0
 20
-51.700000000000003
 30
0.0
 40
2.0
 50
90.0
 51
180.0
  0
LINE
  5
116
  8
DATA
  6
CONTINUOUS
 62
     7
 10
-84.0
 20
-59.033333333333282
 30
0.0
 11
-85.0
 21
-58.699999999999932
 31
0.0
  0
LINE
  5
117
  8
DATA
  6
CONTINUOUS
 62
     7
 10
-85.0
 20
-58.699999999999932
 30
0.0
 11
-85.0
 21
-54.699999999999932
 31
0.0
  0
LINE
  5
118
  8
DATA
  6
CONTINUOUS
 62
     7
 10
-85.0
 20
-54.699999999999932
 30
0.0
 11
-84.0
 21
-54.699999999999932
 31
0.0
  0
LINE
  5
119
  8
DATA
  6
CONTINUOUS
 62
     7
 10
-16.0
 20
-84.593507287524858
 30
0.0
 11
-16.0
 21
-51.700000000000003
 31
0.0
  0
LINE
  5
11A
  8
DATA
  6
CONTINUOUS
 62
     7
 10
-18.0
 20
-86.706827309236942
 30
0.0
 11
-17.35387833675879
 21
-86.486263689255011
 31
0.0
  0
ARC
  5
11B
  8
DATA
  6
CONTINUOUS
 62
     7
 10
-17.999999999999979
 20
-84.593507287524858
 30
0.0
 40
2.000000000000008
 50
288.84813237794879
 51
359.9999999999996
  0
ARC
  5
11C
  8
DATA
  6
CONTINUOUS
 62
     7
 10
-18.0
 20
-51.700000000000003
 30
0.0
 40
2.0
 50
0.0
 51
90.0
  0
LINE
  5
11D
  8
DATA
  6
CONTINUOUS
 62
     7
 10
-16.0
 20
-59.033333333333282
 30
0.0
 11
-15.0
 21
-58.699999999999932
 31
0.0
  0
LINE
  5
11E
  8
DATA
  6
CONTINUOUS
 62
     7
 10
-15.0
 20
-58.699999999999932
 30
0.0
 11
-15.0
 21
-54.699999999999932
 31
0.0
  0
LINE
  5
11F
  8
DATA
  6
CONTINUOUS
 62
     7
 10
-15.0
 20
-54.699999999999932
 30
0.0
 11
-16.0
 21
-54.699999999999932
 31
0.0
  0
LINE
  5
120
  8
DATA
  6
CONTINUOUS
 62
     7
 10
-18.0
 20
-81.420759220056127
 30
0.0
 11
-18.048358737449991
 21
-59.286452282678098
 31
0.0
  0
TEXT
  5
121
  8
DATA
 62
     7
 10
-81.281839554363685
 20
-70.962000000000018
 30
0.0
 40
1.6288411458333321
  1
0
 41
0.7
 11
-81.281839554363685
 21
-69.333158854166683
 31
0.0
 73
     3
  0
TEXT
  5
122
  8
DATA
 62
     7
 10
-19.524947250869051
 20
-70.962000000000018
 30
0.0
 40
1.6288411458333321
  1
0
 41
0.7
 11
-19.524947250869051
 21
-69.333158854166683
 31
0.0
 73
     3
  0
TEXT
  5
123
  8
DATA
 62
     7
 10
-80.638153236465769
 20
-75.106074153505787
 30
0.0
 40
1.6288411458333321
  1
1
 50
4.9999999999999991
 41
0.7
 11
-80.780116096348834
 21
-73.483431239992939
 31
0.0
 73
     3
  0
TEXT
  5
124
  8
DATA
 62
     7
 10
-20.593603630981981
 20
-74.937998378891223
 30
0.0
 40
1.6288411458333321
  1
1
 50
355.0
 41
0.7
 11
-20.451640771098919
 21
-73.315355465378374
 31
0.0
 73
     3
  0
LINE
  5
125
  8
DATA
  6
CONTINUOUS
 62
     7
 10
-82.0
 20
-10.35260286096246
 30
0.0
 11
-82.0
 21
0.3526028609624489
 31
0.0
  0
LINE
  5
126
  8
DATA
  6
CONTINUOUS
 62
     7
 10
-27.949811660363821
 20
-15.0
 30
0.0
 11
-70.756592725696777
 21
-15.0
 31
0.0
  0
LINE
  5
127
  8
DATA
  6
CONTINUOUS
 62
     7
 10
-70.756592725696791
 20
5.0
 30
0.0
 11
-65.524174696260033
 21
5.0
 31
0.0
  0
LINE
  5
128
  8
DATA
  6
CONTINUOUS
 62
     7
 10
-34.475825303739967
 20
5.0
 30
0.0
 11
-27.949811660363821
 21
5.0
 31
0.0
  0
CIRCLE
  5
129
  8
DATA
  6
CONTINUOUS
 62
     7
 10
-70.0
 20
-5.0
 30
0.0
 40
6.0
  0
ARC
  5
12A
  8
DATA
  6
CONTINUOUS
 62
     7
 10
-70.000000000000227
 20
-4.9999999999982228
 30
0.0
 40
4.19999999999823
 50
105.89108211863331
 51
74.108917881360028
  0
CIRCLE
  5
12B
  8
DATA
  6
CONTINUOUS
 62
     7
 10
-70.0
 20
-5.0
 30
0.0
 40
5.5
  0
LINE
  5
12C
  8
DATA
  6
CONTINUOUS
 62
     7
 10
-71.149999999999977
 20
-0.9605074576130193
 30
0.0
 11
-71.149999999999977
 21
-0.4194862219909369
 31
0.0
  0
LINE
  5
12D
  8
DATA
  6
CONTINUOUS
 62
     7
 10
-68.849999999999994
 20
-0.4194862219909439
 30
0.0
 11
-68.849999999999994
 21
-0.9605074576131472
 31
0.0
  0
LINE
  5
12E
  8
DATA
  6
CONTINUOUS
 62
     7
 10
-71.149999999999977
 20
-0.4194862219909369
 30
0.0
 11
-68.849999999999994
 21
-0.4194862219909369
 31
0.0
  0
CIRCLE
  5
12F
  8
DATA
  6
CONTINUOUS
 62
     7
 10
-71.491506167025818
 20
-4.1302818670636139
 30
0.0
 40
0.2999999999999972
  0
CIRCLE
  5
130
  8
DATA
  6
CONTINUOUS
 62
     7
 10
-68.508493832974182
 20
-4.1302818670636139
 30
0.0
 40
0.2999999999999972
  0
CIRCLE
  5
131
  8
DATA
  6
CONTINUOUS
 62
     7
 10
-70.0
 20
-6.605924402116349
 30
0.0
 40
0.2999999999999972
  0
LINE
  5
132
  8
DATA
  6
CONTINUOUS
 62
     7
 10
-81.36483326123286
 20
-11.814529729527511
 30
0.0
 11
-18.558423725373562
 21
-11.814529729527511
 31
0.0
  0
LINE
  5
133
  8
DATA
  6
CONTINUOUS
 62
     7
 10
-73.184749766789153
 20
-14.6226014839944
 30
0.0
 11
-80.607039260273098
 21
-12.25825323196106
 31
0.0
  0
LINE
  5
134
  8
DATA
  6
CONTINUOUS
 62
     7
 10
-25.142392488667269
 20
-14.491221368668169
 30
0.0
 11
-19.298145207075851
 21
-12.30102419586828
 31
0.0
  0
ARC
  5
135
  8
DATA
  6
CONTINUOUS
 62
     7
 10
-80.000000000000014
 20
-10.352602860962451
 30
0.0
 40
1.999999999999984
 50
180.0000000000002
 51
252.33087653887119
  0
ARC
  5
136
  8
DATA
  6
CONTINUOUS
 62
     7
 10
-20.0
 20
-10.428218853701241
 30
0.0
 40
1.999999999999996
 50
290.54404931285558
 51
0.0000000000001137
  0
ARC
  5
137
  8
DATA
  6
CONTINUOUS
 62
     7
 10
-70.756592725696791
 20
-7.0
 30
0.0
 40
7.9999999999999947
 50
252.3308765388706
 51
270.00000000000011
  0
ARC
  5
138
  8
DATA
  6
CONTINUOUS
 62
     7
 10
-27.949811660363821
 20
-7.0
 30
0.0
 40
8.0
 50
270.0
 51
290.54404931285558
  0
LINE
  5
139
  8
DATA
  6
CONTINUOUS
 62
     7
 10
-65.0
 20
-16.699999999999999
 30
0.0
 11
-62.999999999999993
 21
-16.699999999999999
 31
0.0
  0
LINE
  5
13A
  8
DATA
  6
CONTINUOUS
 62
     7
 10
-37.0
 20
-16.699999999999999
 30
0.0
 11
-35.0
 21
-16.699999999999999
 31
0.0
  0
LINE
  5
13B
  8
DATA
  6
CONTINUOUS
 62
     7
 10
-65.0
 20
-16.699999999999999
 30
0.0
 11
-65.0
 21
-15.0
 31
0.0
  0
LINE
  5
13C
  8
DATA
  6
CONTINUOUS
 62
     7
 10
-63.0
 20
-16.699999999999999
 30
0.0
 11
-63.0
 21
-15.0
 31
0.0
  0
LINE
  5
13D
  8
DATA
  6
CONTINUOUS
 62
     7
 10
-35.0
 20
-16.699999999999999
 30
0.0
 11
-35.0
 21
-15.0
 31
0.0
  0
LINE
  5
13E
  8
DATA
  6
CONTINUOUS
 62
     7
 10
-37.0
 20
-16.699999999999999
 30
0.0
 11
-37.0
 21
-15.0
 31
0.0
  0
LINE
  5
13F
  8
DATA
  6
CONTINUOUS
 62
     7
 10
-52.0
 20
-16.699999999999989
 30
0.0
 11
-52.0
 21
-14.999999999999989
 31
0.0
  0
LINE
  5
140
  8
DATA
  6
CONTINUOUS
 62
     7
 10
-50.0
 20
-16.699999999999989
 30
0.0
 11
-50.0
 21
-14.999999999999989
 31
0.0
  0
LINE
  5
141
  8
DATA
  6
CONTINUOUS
 62
     7
 10
-53.25
 20
-16.699999999999999
 30
0.0
 11
-53.25
 21
-15.000000000000011
 31
0.0
  0
LINE
  5
142
  8
DATA
  6
CONTINUOUS
 62
     7
 10
-49.25
 20
-16.699999999999999
 30
0.0
 11
-49.25
 21
-15.0
 31
0.0
  0
LINE
  5
143
  8
DATA
  6
CONTINUOUS
 62
     7
 10
-53.25
 20
-16.699999999999999
 30
0.0
 11
-49.25
 21
-16.699999999999999
 31
0.0
  0
CIRCLE
  5
144
  8
DATA
  6
CONTINUOUS
 62
     7
 10
-30.0
 20
-5.0
 30
0.0
 40
6.0
  0
ARC
  5
145
  8
DATA
  6
CONTINUOUS
 62
     7
 10
-30.00000000000022
 20
-4.9999999999982228
 30
0.0
 40
4.1999999999982309
 50
105.89108211863341
 51
74.108917881360213
  0
CIRCLE
  5
146
  8
DATA
  6
CONTINUOUS
 62
     7
 10
-30.0
 20
-5.0
 30
0.0
 40
5.5
  0
LINE
  5
147
  8
DATA
  6
CONTINUOUS
 62
     7
 10
-31.149999999999991
 20
-0.9605074576130193
 30
0.0
 11
-31.149999999999991
 21
-0.4194862219909369
 31
0.0
  0
LINE
  5
148
  8
DATA
  6
CONTINUOUS
 62
     7
 10
-28.850000000000001
 20
-0.4194862219909439
 30
0.0
 11
-28.850000000000001
 21
-0.9605074576131472
 31
0.0
  0
LINE
  5
149
  8
DATA
  6
CONTINUOUS
 62
     7
 10
-31.149999999999991
 20
-0.4194862219909369
 30
0.0
 11
-28.850000000000001
 21
-0.4194862219909369
 31
0.0
  0
CIRCLE
  5
14A
  8
DATA
  6
CONTINUOUS
 62
     7
 10
-31.491506167025818
 20
-4.1302818670636139
 30
0.0
 40
0.2999999999999972
  0
CIRCLE
  5
14B
  8
DATA
  6
CONTINUOUS
 62
     7
 10
-28.508493832974189
 20
-4.1302818670636139
 30
0.0
 40
0.2999999999999972
  0
CIRCLE
  5
14C
  8
DATA
  6
CONTINUOUS
 62
     7
 10
-30.0
 20
-6.605924402116349
 30
0.0
 40
0.2999999999999972
  0
CIRCLE
  5
14D
  8
DATA
  6
CONTINUOUS
 62
     7
 10
-50.0
 20
-0.9186522815973974
 30
0.0
 40
2.850000000000001
  0
CIRCLE
  5
14E
  8
DATA
  6
CONTINUOUS
 62
     7
 10
-50.0
 20
-0.9186522815973974
 30
0.0
 40
1.75
  0
LINE
  5
14F
  8
DATA
  6
CONTINUOUS
 62
     7
 10
-73.184749766789153
 20
4.6226014839944014
 30
0.0
 11
-80.607039260273098
 21
2.2582532319610631
 31
0.0
  0
LINE
  5
150
  8
DATA
  6
CONTINUOUS
 62
     7
 10
-25.142392488667269
 20
4.491221368668171
 30
0.0
 11
-19.298145207075851
 21
2.3010241958682802
 31
0.0
  0
ARC
  5
151
  8
DATA
  6
CONTINUOUS
 62
     7
 10
-80.000000000000014
 20
0.3526028609624489
 30
0.0
 40
2.0000000000000071
 50
107.66912346112871
 51
179.9999999999996
  0
ARC
  5
152
  8
DATA
  6
CONTINUOUS
 62
     7
 10
-20.0
 20
0.4282188537012388
 30
0.0
 40
2.0
 50
0.0
 51
69.455950687144423
  0
ARC
  5
153
  8
DATA
  6
CONTINUOUS
 62
     7
 10
-70.756592725696791
 20
-3.0
 30
0.0
 40
8.0
 50
89.999999999999915
 51
107.6691234611293
  0
ARC
  5
154
  8
DATA
  6
CONTINUOUS
 62
     7
 10
-27.949811660363821
 20
-3.0
 30
0.0
 40
7.9999999999999982
 50
69.45595068714438
 51
89.999999999999957
  0
LINE
  5
155
  8
DATA
  6
CONTINUOUS
 62
     7
 10
-18.0
 20
-10.42821885370123
 30
0.0
 11
-18.0
 21
0.4282188537012388
 31
0.0
  0
LINE
  5
156
  8
DATA
  6
CONTINUOUS
 62
     7
 10
25.0
 20
-44.57270370146324
 30
0.0
 11
25.0
 21
-51.067680362144479
 31
0.0
  0
LINE
  5
157
  8
DATA
  6
CONTINUOUS
 62
     7
 10
25.0
 20
-53.067680362144493
 30
0.0
 11
25.0
 21
-114.2014998518187
 31
0.0
  0
LINE
  5
158
  8
DATA
  6
CONTINUOUS
 62
     7
 10
45.0
 20
-46.350000000000001
 30
0.0
 11
45.0
 21
-115.4547916049244
 31
0.0
  0
LINE
  5
159
  8
DATA
  6
CONTINUOUS
 62
     7
 10
28.194454640204071
 20
-37.700000000000003
 30
0.0
 11
41.799999999999983
 21
-37.700000000000003
 31
0.0
  0
LINE
  5
15A
  8
DATA
  6
CONTINUOUS
 62
     7
 10
29.244439313210702
 20
-125.0
 30
0.0
 11
41.799999999999983
 21
-125.0
 31
0.0
  0
LINE
  5
15B
  8
DATA
  6
CONTINUOUS
 62
     7
 10
-82.0
 20
117.0990663044908
 30
0.0
 11
-82.0
 21
78.519825524546448
 31
0.0
  0
LINE
  5
15C
  8
DATA
  6
CONTINUOUS
 62
     7
 10
-82.0
 20
49.799066304490339
 30
0.0
 11
-82.0
 21
39.799066304490339
 31
0.0
  0
LINE
  5
15D
  8
DATA
  6
CONTINUOUS
 62
     7
 10
-23.0
 20
122.0990663044908
 30
0.0
 11
-77.0
 21
122.0990663044908
 31
0.0
  0
LINE
  5
15E
  8
DATA
  6
CONTINUOUS
 62
     7
 10
-18.0
 20
39.799066304490339
 30
0.0
 11
-18.0
 21
49.799066304490339
 31
0.0
  0
LINE
  5
15F
  8
DATA
  6
CONTINUOUS
 62
     7
 10
-18.0
 20
78.519825524546448
 30
0.0
 11
-18.0
 21
117.0990663044908
 31
0.0
  0
LINE
  5
160
  8
DATA
  6
CONTINUOUS
 62
     7
 10
-77.0
 20
34.799066304490339
 30
0.0
 11
-23.0
 21
34.799066304490339
 31
0.0
  0
ARC
  5
161
  8
DATA
  6
CONTINUOUS
 62
     7
 10
-77.0
 20
39.799066304490339
 30
0.0
 40
5.0
 50
180.0
 51
270.0
  0
ARC
  5
162
  8
DATA
  6
CONTINUOUS
 62
     7
 10
-23.0
 20
39.799066304490339
 30
0.0
 40
5.0
 50
270.0
 51
0.0
  0
ARC
  5
163
  8
DATA
  6
CONTINUOUS
 62
     7
 10
-77.0
 20
117.0990663044908
 30
0.0
 40
5.0
 50
90.0
 51
180.0
  0
ARC
  5
164
  8
DATA
  6
CONTINUOUS
 62
     7
 10
-23.0
 20
117.0990663044908
 30
0.0
 40
5.0
 50
0.0
 51
90.0
  0
LINE
  5
165
  8
DATA
  6
CONTINUOUS
 62
     7
 10
-76.0
 20
34.799066304490339
 30
0.0
 11
-76.0
 21
34.09906630449035
 31
0.0
  0
LINE
  5
166
  8
DATA
  6
CONTINUOUS
 62
     7
 10
-64.0
 20
34.09906630449035
 30
0.0
 11
-64.0
 21
34.799066304490339
 31
0.0
  0
LINE
  5
167
  8
DATA
  6
CONTINUOUS
 62
     7
 10
-36.0
 20
34.799066304490339
 30
0.0
 11
-36.0
 21
34.09906630449035
 31
0.0
  0
LINE
  5
168
  8
DATA
  6
CONTINUOUS
 62
     7
 10
-24.0
 20
34.09906630449035
 30
0.0
 11
-24.0
 21
34.799066304490339
 31
0.0
  0
LINE
  5
169
  8
DATA
  6
CONTINUOUS
 62
     7
 10
-75.5
 20
33.599066304490321
 30
0.0
 11
-64.5
 21
33.599066304490321
 31
0.0
  0
LINE
  5
16A
  8
DATA
  6
CONTINUOUS
 62
     7
 10
-35.500000000000007
 20
33.599066304490321
 30
0.0
 11
-24.5
 21
33.599066304490321
 31
0.0
  0
LINE
  5
16B
  8
DATA
  6
CONTINUOUS
 62
     7
 10
-76.0
 20
34.09906630449035
 30
0.0
 11
-75.5
 21
33.599066304490321
 31
0.0
  0
LINE
  5
16C
  8
DATA
  6
CONTINUOUS
 62
     7
 10
-64.0
 20
34.09906630449035
 30
0.0
 11
-64.5
 21
33.599066304490321
 31
0.0
  0
LINE
  5
16D
  8
DATA
  6
CONTINUOUS
 62
     7
 10
-35.5
 20
33.599066304490321
 30
0.0
 11
-36.0
 21
34.09906630449035
 31
0.0
  0
LINE
  5
16E
  8
DATA
  6
CONTINUOUS
 62
     7
 10
-24.0
 20
34.09906630449035
 30
0.0
 11
-24.5
 21
33.599066304490321
 31
0.0
  0
LINE
  5
16F
  8
DATA
  6
CONTINUOUS
 62
     7
 10
-21.0
 20
58.519825524546462
 30
0.0
 11
-21.0
 21
76.078307084434201
 31
0.0
  0
LINE
  5
170
  8
DATA
  6
CONTINUOUS
 62
     7
 10
-79.0
 20
76.078307084434201
 30
0.0
 11
-79.0
 21
58.519825524546462
 31
0.0
  0
LINE
  5
171
  8
DATA
  6
CONTINUOUS
 62
     7
 10
-79.683772233983177
 20
57.571142226495951
 30
0.0
 11
-85.0
 21
55.799066304490339
 31
0.0
  0
LINE
  5
172
  8
DATA
  6
CONTINUOUS
 62
     7
 10
-79.683772233983177
 20
77.026990382484726
 30
0.0
 11
-81.316227766016823
 21
77.571142226495951
 31
0.0
  0
LINE
  5
173
  8
DATA
  6
CONTINUOUS
 62
     7
 10
-20.316227766016841
 20
57.571142226495951
 30
0.0
 11
-15.0
 21
55.799066304490339
 31
0.0
  0
LINE
  5
174
  8
DATA
  6
CONTINUOUS
 62
     7
 10
-20.316227766016841
 20
77.026990382484726
 30
0.0
 11
-18.683772233983159
 21
77.571142226495951
 31
0.0
  0
ARC
  5
175
  8
DATA
  6
CONTINUOUS
 62
     7
 10
-80.000000000000014
 20
58.519825524546462
 30
0.0
 40
1.0000000000000011
 50
288.43494882292282
 51
0.0
  0
ARC
  5
176
  8
DATA
  6
CONTINUOUS
 62
     7
 10
-81.0
 20
78.519825524546505
 30
0.0
 40
1.0
 50
180.00000000000159
 51
251.56505117707849
  0
ARC
  5
177
  8
DATA
  6
CONTINUOUS
 62
     7
 10
-80.0
 20
76.078307084434201
 30
0.0
 40
1.0
 50
0.0000000000007958
 51
71.565051177078203
  0
ARC
  5
178
  8
DATA
  6
CONTINUOUS
 62
     7
 10
-20.0
 20
58.519825524546462
 30
0.0
 40
1.0
 50
180.0
 51
251.565051177078
  0
ARC
  5
179
  8
DATA
  6
CONTINUOUS
 62
     7
 10
-20.0
 20
76.078307084434201
 30
0.0
 40
0.9999999999999975
 50
108.434948822922
 51
180.0
  0
ARC
  5
17A
  8
DATA
  6
CONTINUOUS
 62
     7
 10
-19.0
 20
78.519825524546448
 30
0.0
 40
0.9999999999999975
 50
288.43494882292191
 51
0.0
  0
ARC
  5
17B
  8
DATA
  6
CONTINUOUS
 62
     7
 10
-69.44672985023125
 20
67.299066304490353
 30
0.0
 40
12.1616446256253
 50
141.76921670961639
 51
218.23078329038361
  0
ARC
  5
17C
  8
DATA
  6
CONTINUOUS
 62
     7
 10
-30.422180115472958
 20
67.299066304490353
 30
0.0
 40
12.161644625625261
 50
320.78196940883163
 51
39.218030591168421
  0
LINE
  5
17D
  8
DATA
  6
CONTINUOUS
 62
     7
 10
-84.0
 20
81.692573592015279
 30
0.0
 11
-84.0
 21
56.13239963782366
 31
0.0
  0
LINE
  5
17E
  8
DATA
  6
CONTINUOUS
 62
     7
 10
-84.0
 20
51.79906630449026
 30
0.0
 11
-84.0
 21
50.799066304490339
 31
0.0
  0
LINE
  5
17F
  8
DATA
  6
CONTINUOUS
 62
     7
 10
-82.019999999999982
 20
83.799066304490452
 30
0.0
 11
-82.646121663241203
 21
83.585329993745489
 31
0.0
  0
ARC
  5
180
  8
DATA
  6
CONTINUOUS
 62
     7
 10
-82.000000000000014
 20
81.692573592015279
 30
0.0
 40
2.000000000000048
 50
108.8481323779484
 51
180.0
  0
LINE
  5
181
  8
DATA
  6
CONTINUOUS
 62
     7
 10
-82.0
 20
78.519825524546448
 30
0.0
 11
-82.0
 21
56.799066304490317
 31
0.0
  0
LINE
  5
182
  8
DATA
  6
CONTINUOUS
 62
     7
 10
-85.0
 20
55.799066304490253
 30
0.0
 11
-85.0
 21
51.79906630449026
 31
0.0
  0
LINE
  5
183
  8
DATA
  6
CONTINUOUS
 62
     7
 10
-85.0
 20
51.79906630449026
 30
0.0
 11
-84.0
 21
51.79906630449026
 31
0.0
  0
LINE
  5
184
  8
DATA
  6
CONTINUOUS
 62
     7
 10
-16.0
 20
81.692573592015279
 30
0.0
 11
-16.0
 21
56.13239963782366
 31
0.0
  0
LINE
  5
185
  8
DATA
  6
CONTINUOUS
 62
     7
 10
-16.0
 20
51.799066304490353
 30
0.0
 11
-16.0
 21
50.799066304490339
 31
0.0
  0
LINE
  5
186
  8
DATA
  6
CONTINUOUS
 62
     7
 10
-17.98
 20
83.799066304490452
 30
0.0
 11
-17.35387833675879
 21
83.585329993745489
 31
0.0
  0
ARC
  5
187
  8
DATA
  6
CONTINUOUS
 62
     7
 10
-17.999999999999979
 20
81.692573592015279
 30
0.0
 40
1.999999999999984
 50
0.0
 51
71.151867622051611
  0
LINE
  5
188
  8
DATA
  6
CONTINUOUS
 62
     7
 10
-15.0
 20
55.799066304490253
 30
0.0
 11
-15.0
 21
51.79906630449026
 31
0.0
  0
LINE
  5
189
  8
DATA
  6
CONTINUOUS
 62
     7
 10
-18.0
 20
78.519825524546448
 30
0.0
 11
-18.047420689238351
 21
56.814873200903122
 31
0.0
  0
LINE
  5
18A
  8
DATA
  6
CONTINUOUS
 62
     7
 10
-34.220266161940494
 20
7.0
 30
0.0
 11
-23.0
 21
7.0
 31
0.0
  0
LINE
  5
18B
  8
DATA
  6
CONTINUOUS
 62
     7
 10
-84.0
 20
-6.0
 30
0.0
 11
-82.0
 21
-6.0
 31
0.0
  0
LINE
  5
18C
  8
DATA
  6
CONTINUOUS
 62
     7
 10
-18.0
 20
-6.0
 30
0.0
 11
-16.0
 21
-6.0
 31
0.0
  0
LINE
  5
18D
  8
DATA
  6
CONTINUOUS
 62
     7
 10
-84.0
 20
-6.0
 30
0.0
 11
-84.0
 21
0.0
 31
0.0
  0
LINE
  5
18E
  8
DATA
  6
CONTINUOUS
 62
     7
 10
-16.0
 20
-6.0
 30
0.0
 11
-16.0
 21
0.0
 31
0.0
  0
ARC
  5
18F
  8
DATA
  6
CONTINUOUS
 62
     7
 10
-77.0
 20
0.0502525316941678
 30
0.0
 40
7.0
 50
96.869541320857294
 51
180.0
  0
ARC
  5
190
  8
DATA
  6
CONTINUOUS
 62
     7
 10
-23.0
 20
-0.0000000000000004
 30
0.0
 40
7.0
 50
0.0
 51
90.0
  0
LINE
  5
191
  8
DATA
  6
CONTINUOUS
 62
     7
 10
-70.756592725696777
 20
5.0
 30
0.0
 11
-77.0
 21
5.0
 31
0.0
  0
ARC
  5
192
  8
DATA
  6
CONTINUOUS
 62
     7
 10
-77.0
 20
0.0000000000000004
 30
0.0
 40
5.0
 50
90.0
 51
180.0
  0
LINE
  5
193
  8
DATA
  6
CONTINUOUS
 62
     7
 10
-65.779733838059528
 20
7.0
 30
0.0
 11
-77.837263475123962
 21
7.0
 31
0.0
  0
LINE
  5
194
  8
DATA
  6
CONTINUOUS
 62
     7
 10
-29.24340727430323
 20
5.0
 30
0.0
 11
-23.0
 21
5.0
 31
0.0
  0
ARC
  5
195
  8
DATA
  6
CONTINUOUS
 62
     7
 10
-23.0
 20
0.0000000000000004
 30
0.0
 40
5.0
 50
0.0
 51
90.0
  0
LINE
  5
196
  8
DATA
  6
CONTINUOUS
 62
     7
 10
-64.0
 20
-5.0
 30
0.0
 11
-54.25
 21
-5.0
 31
0.0
  0
LINE
  5
197
  8
DATA
  6
CONTINUOUS
 62
     7
 10
-45.75
 20
-5.0
 30
0.0
 11
-36.0
 21
-5.0
 31
0.0
  0
ARC
  5
198
  8
DATA
  6
CONTINUOUS
 62
     7
 10
-50.0
 20
-19.12499999999995
 30
0.0
 40
30.124999999999961
 50
61.551455962617801
 51
118.44854403738221
  0
ARC
  5
199
  8
DATA
  6
CONTINUOUS
 62
     7
 10
-50.0
 20
-21.12499999999995
 30
0.0
 40
30.124999999999961
 50
61.102591056084677
 51
118.8974089439152
  0
ARC
  5
19A
  8
DATA
  6
CONTINUOUS
 62
     7
 10
-65.779733838059528
 20
10.00000000000002
 30
0.0
 40
3.0000000000000231
 50
270.0
 51
298.44854403738202
  0
ARC
  5
19B
  8
DATA
  6
CONTINUOUS
 62
     7
 10
-34.220266161940494
 20
10.00000000000005
 30
0.0
 40
3.0000000000000511
 50
241.55145596261821
 51
270.0
  0
ARC
  5
19C
  8
DATA
  6
CONTINUOUS
 62
     7
 10
-65.524174696260033
 20
7.0000000000000124
 30
0.0
 40
2.0000000000000111
 50
270.0
 51
298.89740894391542
  0
ARC
  5
19D
  8
DATA
  6
CONTINUOUS
 62
     7
 10
-34.475825303739967
 20
7.0000000000000249
 30
0.0
 40
2.0000000000000262
 50
241.102591056085
 51
270.0
  0
LINE
  5
19E
  8
DATA
  6
CONTINUOUS
 62
     7
 10
-65.900000000000006
 20
5.0
 30
0.0
 11
-33.600000000000001
 21
5.0
 31
0.0
  0
LINE
  5
19F
  8
DATA
  6
CONTINUOUS
 62
     7
 10
-85.0
 20
-6.0
 30
0.0
 11
-85.0
 21
-5.0
 31
0.0
  0
LINE
  5
1A0
  8
DATA
  6
CONTINUOUS
 62
     7
 10
-15.0
 20
-6.0
 30
0.0
 11
-15.0
 21
-5.0
 31
0.0
  0
LINE
  5
1A1
  8
DATA
  6
CONTINUOUS
 62
     7
 10
-84.0
 20
-6.0
 30
0.0
 11
-85.0
 21
-6.0
 31
0.0
  0
LINE
  5
1A2
  8
DATA
  6
CONTINUOUS
 62
     7
 10
-16.0
 20
-6.0
 30
0.0
 11
-15.0
 21
-6.0
 31
0.0
  0
ARC
  5
1A3
  8
DATA
  6
CONTINUOUS
 62
     7
 10
-84.0
 20
-5.0
 30
0.0
 40
1.0
 50
90.0
 51
180.0
  0
ARC
  5
1A4
  8
DATA
  6
CONTINUOUS
 62
     7
 10
-16.0
 20
-5.0
 30
0.0
 40
1.0
 50
0.0
 51
90.0
  0
ARC
  5
1A5
  8
DATA
  6
CONTINUOUS
 62
     7
 10
-74.725172413793061
 20
-14.422413793103489
 30
0.0
 40
9.5082630939105357
 50
97.705178887134721
 51
139.91640859881139
  0
ARC
  5
1A6
  8
DATA
  6
CONTINUOUS
 62
     7
 10
-25.198084572813372
 20
-14.422413793103489
 30
0.0
 40
9.5082630939105357
 50
40.083591401188578
 51
82.294821112865293
  0
LINE
  5
1A7
  8
DATA
  6
CONTINUOUS
 62
     7
 10
-54.25
 20
-0.9186522815973977
 30
0.0
 11
-52.850000000000009
 21
-0.9186522815973977
 31
0.0
  0
LINE
  5
1A8
  8
DATA
  6
CONTINUOUS
 62
     7
 10
-47.149999999999977
 20
-0.9186522815973977
 30
0.0
 11
-45.75
 21
-0.9186522815973977
 31
0.0
  0
LINE
  5
1A9
  8
DATA
  6
CONTINUOUS
 62
     7
 10
-54.25
 20
-0.9186522815974028
 30
0.0
 11
-54.25
 21
-5.0
 31
0.0
  0
LINE
  5
1AA
  8
DATA
  6
CONTINUOUS
 62
     7
 10
-45.75
 20
-0.9186522815974028
 30
0.0
 11
-45.75
 21
-5.0
 31
0.0
  0
LINE
  5
1AB
  8
DATA
  6
CONTINUOUS
 62
     7
 10
-82.0
 20
-157.25139713903741
 30
0.0
 11
-82.0
 21
-167.95660286096239
 31
0.0
  0
LINE
  5
1AC
  8
DATA
  6
CONTINUOUS
 62
     7
 10
-27.949811660363821
 20
-152.6039999999999
 30
0.0
 11
-70.756592725696777
 21
-152.6039999999999
 31
0.0
  0
LINE
  5
1AD
  8
DATA
  6
CONTINUOUS
 62
     7
 10
-70.756592725696791
 20
-172.6039999999999
 30
0.0
 11
-65.524174696260033
 21
-172.6039999999999
 31
0.0
  0
LINE
  5
1AE
  8
DATA
  6
CONTINUOUS
 62
     7
 10
-34.475825303739967
 20
-172.6039999999999
 30
0.0
 11
-27.949811660363821
 21
-172.6039999999999
 31
0.0
  0
LINE
  5
1AF
  8
DATA
  6
CONTINUOUS
 62
     7
 10
-81.36483326123286
 20
-155.78947027047241
 30
0.0
 11
-18.558423725373562
 21
-155.78947027047241
 31
0.0
  0
LINE
  5
1B0
  8
DATA
  6
CONTINUOUS
 62
     7
 10
-73.184749766789153
 20
-152.98139851600561
 30
0.0
 11
-80.607039260273098
 21
-155.34574676803891
 31
0.0
  0
LINE
  5
1B1
  8
DATA
  6
CONTINUOUS
 62
     7
 10
-25.142392488667269
 20
-153.11277863133179
 30
0.0
 11
-19.298145207075851
 21
-155.30297580413171
 31
0.0
  0
ARC
  5
1B2
  8
DATA
  6
CONTINUOUS
 62
     7
 10
-80.000000000000014
 20
-157.25139713903741
 30
0.0
 40
2.0000000000000071
 50
107.66912346112871
 51
180.0
  0
ARC
  5
1B3
  8
DATA
  6
CONTINUOUS
 62
     7
 10
-20.0
 20
-157.1757811462987
 30
0.0
 40
2.0
 50
0.0
 51
69.455950687143954
  0
ARC
  5
1B4
  8
DATA
  6
CONTINUOUS
 62
     7
 10
-70.756592725696791
 20
-160.6039999999999
 30
0.0
 40
8.0
 50
89.999999999999915
 51
107.6691234611293
  0
ARC
  5
1B5
  8
DATA
  6
CONTINUOUS
 62
     7
 10
-27.949811660363821
 20
-160.6039999999999
 30
0.0
 40
7.9999999999999929
 50
69.455950687144352
 51
89.999999999999957
  0
LINE
  5
1B6
  8
DATA
  6
CONTINUOUS
 62
     7
 10
-65.0
 20
-150.904
 30
0.0
 11
-62.999999999999993
 21
-150.904
 31
0.0
  0
LINE
  5
1B7
  8
DATA
  6
CONTINUOUS
 62
     7
 10
-37.0
 20
-150.904
 30
0.0
 11
-35.0
 21
-150.904
 31
0.0
  0
LINE
  5
1B8
  8
DATA
  6
CONTINUOUS
 62
     7
 10
-65.0
 20
-150.904
 30
0.0
 11
-65.0
 21
-152.6039999999999
 31
0.0
  0
LINE
  5
1B9
  8
DATA
  6
CONTINUOUS
 62
     7
 10
-63.0
 20
-150.904
 30
0.0
 11
-63.0
 21
-152.6039999999999
 31
0.0
  0
LINE
  5
1BA
  8
DATA
  6
CONTINUOUS
 62
     7
 10
-35.0
 20
-150.904
 30
0.0
 11
-35.0
 21
-152.6039999999999
 31
0.0
  0
LINE
  5
1BB
  8
DATA
  6
CONTINUOUS
 62
     7
 10
-37.0
 20
-150.904
 30
0.0
 11
-37.0
 21
-152.6039999999999
 31
0.0
  0
LINE
  5
1BC
  8
DATA
  6
CONTINUOUS
 62
     7
 10
-52.0
 20
-150.904
 30
0.0
 11
-52.0
 21
-152.6039999999999
 31
0.0
  0
LINE
  5
1BD
  8
DATA
  6
CONTINUOUS
 62
     7
 10
-50.0
 20
-150.904
 30
0.0
 11
-50.0
 21
-152.6039999999999
 31
0.0
  0
LINE
  5
1BE
  8
DATA
  6
CONTINUOUS
 62
     7
 10
-53.25
 20
-150.904
 30
0.0
 11
-53.25
 21
-152.6039999999999
 31
0.0
  0
LINE
  5
1BF
  8
DATA
  6
CONTINUOUS
 62
     7
 10
-49.25
 20
-150.904
 30
0.0
 11
-49.25
 21
-152.6039999999999
 31
0.0
  0
LINE
  5
1C0
  8
DATA
  6
CONTINUOUS
 62
     7
 10
-53.25
 20
-150.904
 30
0.0
 11
-49.25
 21
-150.904
 31
0.0
  0
LINE
  5
1C1
  8
DATA
  6
CONTINUOUS
 62
     7
 10
-73.184749766789153
 20
-172.22660148399439
 30
0.0
 11
-80.607039260273098
 21
-169.86225323196101
 31
0.0
  0
LINE
  5
1C2
  8
DATA
  6
CONTINUOUS
 62
     7
 10
-25.142392488667269
 20
-172.09522136866809
 30
0.0
 11
-19.298145207075851
 21
-169.90502419586829
 31
0.0
  0
ARC
  5
1C3
  8
DATA
  6
CONTINUOUS
 62
     7
 10
-80.000000000000014
 20
-167.95660286096239
 30
0.0
 40
1.999999999999984
 50
180.0
 51
252.33087653887131
  0
ARC
  5
1C4
  8
DATA
  6
CONTINUOUS
 62
     7
 10
-20.0
 20
-168.03221885370121
 30
0.0
 40
2.0000000000000111
 50
290.54404931285552
 51
0.0
  0
ARC
  5
1C5
  8
DATA
  6
CONTINUOUS
 62
     7
 10
-70.756592725696791
 20
-164.6039999999999
 30
0.0
 40
7.9999999999999982
 50
252.3308765388706
 51
270.00000000000011
  0
ARC
  5
1C6
  8
DATA
  6
CONTINUOUS
 62
     7
 10
-27.949811660363821
 20
-164.6039999999999
 30
0.0
 40
8.0
 50
270.0
 51
290.54404931285558
  0
LINE
  5
1C7
  8
DATA
  6
CONTINUOUS
 62
     7
 10
-18.0
 20
-157.1757811462987
 30
0.0
 11
-18.0
 21
-168.03221885370121
 31
0.0
  0
LINE
  5
1C8
  8
DATA
  6
CONTINUOUS
 62
     7
 10
-34.220266161940494
 20
-174.6039999999999
 30
0.0
 11
-23.0
 21
-174.6039999999999
 31
0.0
  0
LINE
  5
1C9
  8
DATA
  6
CONTINUOUS
 62
     7
 10
-84.0
 20
-161.6039999999999
 30
0.0
 11
-82.0
 21
-161.6039999999999
 31
0.0
  0
LINE
  5
1CA
  8
DATA
  6
CONTINUOUS
 62
     7
 10
-18.0
 20
-161.6039999999999
 30
0.0
 11
-16.0
 21
-161.6039999999999
 31
0.0
  0
LINE
  5
1CB
  8
DATA
  6
CONTINUOUS
 62
     7
 10
-84.0
 20
-163.6039999999999
 30
0.0
 11
-84.0
 21
-167.6039999999999
 31
0.0
  0
LINE
  5
1CC
  8
DATA
  6
CONTINUOUS
 62
     7
 10
-16.0
 20
-163.6039999999999
 30
0.0
 11
-16.0
 21
-167.6039999999999
 31
0.0
  0
ARC
  5
1CD
  8
DATA
  6
CONTINUOUS
 62
     7
 10
-77.0
 20
-167.65425253169411
 30
0.0
 40
7.0
 50
180.0
 51
263.13045867914258
  0
ARC
  5
1CE
  8
DATA
  6
CONTINUOUS
 62
     7
 10
-23.0
 20
-167.6039999999999
 30
0.0
 40
7.0
 50
270.0
 51
0.0
  0
LINE
  5
1CF
  8
DATA
  6
CONTINUOUS
 62
     7
 10
-70.756592725696777
 20
-172.6039999999999
 30
0.0
 11
-77.0
 21
-172.6039999999999
 31
0.0
  0
ARC
  5
1D0
  8
DATA
  6
CONTINUOUS
 62
     7
 10
-77.0
 20
-167.6039999999999
 30
0.0
 40
5.0
 50
180.0
 51
270.0
  0
LINE
  5
1D1
  8
DATA
  6
CONTINUOUS
 62
     7
 10
-65.779733838059528
 20
-174.6039999999999
 30
0.0
 11
-77.837263475123962
 21
-174.6039999999999
 31
0.0
  0
LINE
  5
1D2
  8
DATA
  6
CONTINUOUS
 62
     7
 10
-29.24340727430323
 20
-172.6039999999999
 30
0.0
 11
-23.0
 21
-172.6039999999999
 31
0.0
  0
ARC
  5
1D3
  8
DATA
  6
CONTINUOUS
 62
     7
 10
-23.0
 20
-167.6039999999999
 30
0.0
 40
5.0
 50
270.0
 51
0.0
  0
LINE
  5
1D4
  8
DATA
  6
CONTINUOUS
 62
     7
 10
-82.0
 20
-162.6039999999999
 30
0.0
 11
-18.0
 21
-162.6039999999999
 31
0.0
  0
ARC
  5
1D5
  8
DATA
  6
CONTINUOUS
 62
     7
 10
-50.0
 20
-148.47900000000001
 30
0.0
 40
30.124999999999972
 50
241.55145596261781
 51
298.44854403738219
  0
ARC
  5
1D6
  8
DATA
  6
CONTINUOUS
 62
     7
 10
-50.0
 20
-146.47900000000001
 30
0.0
 40
30.12499999999995
 50
241.10259105608469
 51
298.89740894391531
  0
ARC
  5
1D7
  8
DATA
  6
CONTINUOUS
 62
     7
 10
-65.779733838059528
 20
-177.60400000000001
 30
0.0
 40
3.0000000000000342
 50
61.551455962618071
 51
90.0
  0
ARC
  5
1D8
  8
DATA
  6
CONTINUOUS
 62
     7
 10
-34.220266161940494
 20
-177.60400000000001
 30
0.0
 40
3.0000000000000551
 50
90.0
 51
118.44854403738179
  0
ARC
  5
1D9
  8
DATA
  6
CONTINUOUS
 62
     7
 10
-65.524174696260033
 20
-174.6039999999999
 30
0.0
 40
2.0000000000000062
 50
61.102591056084421
 51
90.0
  0
ARC
  5
1DA
  8
DATA
  6
CONTINUOUS
 62
     7
 10
-34.475825303739967
 20
-174.60400000000001
 30
0.0
 40
2.0000000000000551
 50
90.0
 51
118.8974089439145
  0
LINE
  5
1DB
  8
DATA
  6
CONTINUOUS
 62
     7
 10
-65.900000000000006
 20
-172.6039999999999
 30
0.0
 11
-33.600000000000001
 21
-172.6039999999999
 31
0.0
  0
LINE
  5
1DC
  8
DATA
  6
CONTINUOUS
 62
     7
 10
-85.0
 20
-161.6039999999999
 30
0.0
 11
-85.0
 21
-162.6039999999999
 31
0.0
  0
LINE
  5
1DD
  8
DATA
  6
CONTINUOUS
 62
     7
 10
-15.0
 20
-161.6039999999999
 30
0.0
 11
-15.0
 21
-162.6039999999999
 31
0.0
  0
LINE
  5
1DE
  8
DATA
  6
CONTINUOUS
 62
     7
 10
-84.0
 20
-161.6039999999999
 30
0.0
 11
-85.0
 21
-161.6039999999999
 31
0.0
  0
LINE
  5
1DF
  8
DATA
  6
CONTINUOUS
 62
     7
 10
-16.0
 20
-161.6039999999999
 30
0.0
 11
-15.0
 21
-161.6039999999999
 31
0.0
  0
ARC
  5
1E0
  8
DATA
  6
CONTINUOUS
 62
     7
 10
-84.0
 20
-162.6039999999999
 30
0.0
 40
1.0
 50
180.0
 51
270.0
  0
ARC
  5
1E1
  8
DATA
  6
CONTINUOUS
 62
     7
 10
-16.0
 20
-162.6039999999999
 30
0.0
 40
1.0
 50
270.0
 51
0.0
  0
LINE
  5
1E2
  8
DATA
  6
CONTINUOUS
 62
     7
 10
-16.0
 20
-163.6039999999999
 30
0.0
 11
-18.0
 21
-164.00399999999999
 31
0.0
  0
LINE
  5
1E3
  8
DATA
  6
CONTINUOUS
 62
     7
 10
-84.0
 20
-163.6039999999999
 30
0.0
 11
-82.0
 21
-164.00399999999999
 31
0.0
  0
LINE
  5
1E4
  8
DATA
  6
CONTINUOUS
 62
     7
 10
-82.0
 20
88.799066304490324
 30
0.0
 11
-62.057899933317941
 21
88.799066304490324
 31
0.0
  0
LINE
  5
1E5
  8
DATA
  6
CONTINUOUS
 62
     7
 10
-60.057899933317941
 20
88.799066304490324
 30
0.0
 11
-39.94210006668208
 21
88.799066304490324
 31
0.0
  0
LINE
  5
1E6
  8
DATA
  6
CONTINUOUS
 62
     7
 10
-37.942100066682073
 20
88.799066304490324
 30
0.0
 11
-18.0
 21
88.799066304490324
 31
0.0
  0
CIRCLE
  5
1E7
  8
DATA
  6
CONTINUOUS
 62
     7
 10
-67.5
 20
83.799066304490353
 30
0.0
 40
2.1500000000000039
  0
LINE
  5
1E8
  8
DATA
  6
CONTINUOUS
 62
     7
 10
-68.655778677086957
 20
83.799066304490353
 30
0.0
 11
-66.344221322913043
 21
83.799066304490353
 31
0.0
  0
LINE
  5
1E9
  8
DATA
  6
CONTINUOUS
 62
     7
 10
-67.5
 20
82.643287627403353
 30
0.0
 11
-67.5
 21
84.954844981577295
 31
0.0
  0
CIRCLE
  5
1EA
  8
DATA
  6
CONTINUOUS
 62
     7
 10
-32.5
 20
83.799066304490353
 30
0.0
 40
2.1499999999999981
  0
LINE
  5
1EB
  8
DATA
  6
CONTINUOUS
 62
     7
 10
-31.34422132291305
 20
83.799066304490353
 30
0.0
 11
-33.655778677086957
 21
83.799066304490353
 31
0.0
  0
LINE
  5
1EC
  8
DATA
  6
CONTINUOUS
 62
     7
 10
-32.5
 20
82.643287627403353
 30
0.0
 11
-32.5
 21
84.954844981577295
 31
0.0
  0
CIRCLE
  5
1ED
  8
DATA
  6
CONTINUOUS
 62
     7
 10
-60.0
 20
44.799066304490339
 30
0.0
 40
2.1499999999999981
  0
LINE
  5
1EE
  8
DATA
  6
CONTINUOUS
 62
     7
 10
-61.155778677086957
 20
44.799066304490339
 30
0.0
 11
-58.844221322913029
 21
44.799066304490339
 31
0.0
  0
LINE
  5
1EF
  8
DATA
  6
CONTINUOUS
 62
     7
 10
-60.0
 20
43.643287627403367
 30
0.0
 11
-60.0
 21
45.954844981577303
 31
0.0
  0
CIRCLE
  5
1F0
  8
DATA
  6
CONTINUOUS
 62
     7
 10
-40.0
 20
44.799066304490339
 30
0.0
 40
2.1499999999999981
  0
LINE
  5
1F1
  8
DATA
  6
CONTINUOUS
 62
     7
 10
-38.844221322913043
 20
44.799066304490339
 30
0.0
 11
-41.155778677086957
 21
44.799066304490339
 31
0.0
  0
LINE
  5
1F2
  8
DATA
  6
CONTINUOUS
 62
     7
 10
-40.0
 20
43.643287627403367
 30
0.0
 11
-40.0
 21
45.954844981577303
 31
0.0
  0
LINE
  5
1F3
  8
DATA
  6
CONTINUOUS
 62
     7
 10
-83.0
 20
49.799066304490339
 30
0.0
 11
-66.51626988004395
 21
49.799066304490339
 31
0.0
  0
LINE
  5
1F4
  8
DATA
  6
CONTINUOUS
 62
     7
 10
-33.483730119956071
 20
49.799066304490339
 30
0.0
 11
-17.0
 21
49.799066304490339
 31
0.0
  0
LINE
  5
1F5
  8
DATA
  6
CONTINUOUS
 62
     7
 10
-60.224891740107928
 20
94.100868754568154
 30
0.0
 11
-57.645264514994047
 21
100.39447215557441
 31
0.0
  0
ARC
  5
1F6
  8
DATA
  6
CONTINUOUS
 62
     7
 10
-50.058551860808109
 20
91.508525235789875
 30
0.0
 40
12.59067721463186
 50
89.733549947966026
 51
112.953642625802
  0
ARC
  5
1F7
  8
DATA
  6
CONTINUOUS
 62
     7
 10
-53.018811454689931
 20
98.498177853305066
 30
0.0
 40
5.0000000000016831
 50
112.9536426258245
 51
157.71221767333341
  0
ARC
  5
1F8
  8
DATA
  6
CONTINUOUS
 62
     7
 10
-49.941448139191877
 20
91.508525235789875
 30
0.0
 40
12.59067721463186
 50
67.046357374197981
 51
90.266450052033974
  0
ARC
  5
1F9
  8
DATA
  6
CONTINUOUS
 62
     7
 10
-46.981188545310047
 20
98.498177853305066
 30
0.0
 40
5.0000000000016884
 50
22.287782326666569
 51
67.046357374175471
  0
LINE
  5
1FA
  8
DATA
  6
CONTINUOUS
 62
     7
 10
-63.718636395394171
 20
80.048530920457253
 30
0.0
 11
-66.3285604371559
 21
53.60264209694725
 31
0.0
  0
ARC
  5
1FB
  8
DATA
  6
CONTINUOUS
 62
     7
 10
-13.96036113708243
 20
75.137925731880003
 30
0.0
 40
50.0
 50
157.7122176733333
 51
174.3637752595792
  0
LINE
  5
1FC
  8
DATA
  6
CONTINUOUS
 62
     7
 10
-39.775108259892072
 20
94.100868754568154
 30
0.0
 11
-42.354735485005939
 21
100.39447215557441
 31
0.0
  0
LINE
  5
1FD
  8
DATA
  6
CONTINUOUS
 62
     7
 10
-36.281363604605829
 20
80.048530920457253
 30
0.0
 11
-33.6714395628441
 21
53.60264209694725
 31
0.0
  0
ARC
  5
1FE
  8
DATA
  6
CONTINUOUS
 62
     7
 10
-86.039638862917542
 20
75.137925731880003
 30
0.0
 40
50.0
 50
5.6362247404207562
 51
22.287782326666701
  0
LINE
  5
1FF
  8
DATA
  6
CONTINUOUS
 62
     7
 10
-84.999999999999986
 20
51.799066304490353
 30
0.0
 11
-68.318891447488369
 21
51.799066304490353
 31
0.0
  0
LINE
  5
200
  8
DATA
  6
CONTINUOUS
 62
     7
 10
-31.681108552511638
 20
51.799066304490353
 30
0.0
 11
-15.0
 21
51.799066304490353
 31
0.0
  0
LINE
  5
201
  8
DATA
  6
CONTINUOUS
 62
     7
 10
-61.718636395394171
 20
80.048530920457253
 30
0.0
 11
-64.525938869711453
 21
51.60264209694725
 31
0.0
  0
ARC
  5
202
  8
DATA
  6
CONTINUOUS
 62
     7
 10
-11.96036113708244
 20
75.137925731880003
 30
0.0
 40
50.0
 50
157.7122176733333
 51
174.3637752595792
  0
LINE
  5
203
  8
DATA
  6
CONTINUOUS
 62
     7
 10
-58.224891740107942
 20
94.100868754568154
 30
0.0
 11
-56.288927413700641
 21
98.824106108510236
 31
0.0
  0
ARC
  5
204
  8
DATA
  6
CONTINUOUS
 62
     7
 10
-50.058551860808109
 20
89.50852523578989
 30
0.0
 40
12.59067721463186
 50
89.733549947966026
 51
102.1986421818409
  0
ARC
  5
205
  8
DATA
  6
CONTINUOUS
 62
     7
 10
-49.941448139191877
 20
89.50852523578989
 30
0.0
 40
12.59067721463186
 50
77.801357818159147
 51
90.266450052033974
  0
ARC
  5
206
  8
DATA
  6
CONTINUOUS
 62
     7
 10
-51.662474353396313
 20
96.927811806240726
 30
0.0
 40
5.0000000000019202
 50
102.19864218187099
 51
157.71221767333341
  0
LINE
  5
207
  8
DATA
  6
CONTINUOUS
 62
     7
 10
-38.281363604605829
 20
80.048530920457253
 30
0.0
 11
-35.474061130288533
 21
51.60264209694725
 31
0.0
  0
ARC
  5
208
  8
DATA
  6
CONTINUOUS
 62
     7
 10
-88.039638862917542
 20
75.137925731880003
 30
0.0
 40
50.0
 50
5.6362247404207526
 51
22.287782326666679
  0
LINE
  5
209
  8
DATA
  6
CONTINUOUS
 62
     7
 10
-41.775108259892072
 20
94.100868754568154
 30
0.0
 11
-43.711072586299373
 21
98.824106108510236
 31
0.0
  0
ARC
  5
20A
  8
DATA
  6
CONTINUOUS
 62
     7
 10
-48.337525646603702
 20
96.927811806240726
 30
0.0
 40
5.0000000000019202
 50
22.287782326666541
 51
77.801357818128992
  0
LINE
  5
20B
  8
DATA
  6
CONTINUOUS
 62
     7
 10
-84.0
 20
51.79906630449026
 30
0.0
 11
-82.0
 21
51.79906630449026
 31
0.0
  0
ARC
  5
20C
  8
DATA
  6
CONTINUOUS
 62
     7
 10
-68.318891447488369
 20
53.799066304490353
 30
0.0
 40
2.0
 50
270.0
 51
354.36377525957948
  0
ARC
  5
20D
  8
DATA
  6
CONTINUOUS
 62
     7
 10
-66.51626988004395
 20
51.799066304490353
 30
0.0
 40
2.0
 50
270.0
 51
354.36377525957948
  0
ARC
  5
20E
  8
DATA
  6
CONTINUOUS
 62
     7
 10
-31.681108552511638
 20
53.799066304490353
 30
0.0
 40
1.999999999999994
 50
185.6362247404206
 51
270.0
  0
ARC
  5
20F
  8
DATA
  6
CONTINUOUS
 62
     7
 10
-33.483730119956071
 20
51.799066304490353
 30
0.0
 40
1.999999999999998
 50
185.6362247404206
 51
270.0
  0
ARC
  5
210
  8
DATA
  6
CONTINUOUS
 62
     7
 10
-83.0
 20
50.799066304490339
 30
0.0
 40
1.0
 50
180.0
 51
270.0
  0
ARC
  5
211
  8
DATA
  6
CONTINUOUS
 62
     7
 10
-17.0
 20
50.799066304490339
 30
0.0
 40
1.0
 50
270.0
 51
0.0
  0
CIRCLE
  5
212
  8
DATA
  6
CONTINUOUS
 62
     7
 10
-50.0
 20
95.112361225698507
 30
0.0
 40
0.3999999999999986
  0
CIRCLE
  5
213
  8
DATA
  6
CONTINUOUS
 62
     7
 10
-45.0
 20
95.112361225698507
 30
0.0
 40
0.3999999999999986
  0
CIRCLE
  5
214
  8
DATA
  6
CONTINUOUS
 62
     7
 10
-55.000000000000021
 20
95.112361225698507
 30
0.0
 40
0.3999999999999986
  0
LINE
  5
215
  8
DATA
  6
CONTINUOUS
 62
     7
 10
28.739238507468752
 20
-37.700000000000003
 30
0.0
 11
28.739238507468752
 21
-37.0
 31
0.0
  0
LINE
  5
216
  8
DATA
  6
CONTINUOUS
 62
     7
 10
40.739238507468862
 20
-37.0
 30
0.0
 11
40.739238507468862
 21
-37.700000000000003
 31
0.0
  0
LINE
  5
217
  8
DATA
  6
CONTINUOUS
 62
     7
 10
29.239238507468752
 20
-36.499999999999993
 30
0.0
 11
40.239238507468848
 21
-36.499999999999993
 31
0.0
  0
LINE
  5
218
  8
DATA
  6
CONTINUOUS
 62
     7
 10
29.239238507468752
 20
-36.499999999999993
 30
0.0
 11
28.739238507468752
 21
-37.0
 31
0.0
  0
LINE
  5
219
  8
DATA
  6
CONTINUOUS
 62
     7
 10
40.739238507468862
 20
-37.0
 30
0.0
 11
40.239238507468848
 21
-36.499999999999993
 31
0.0
  0
LINE
  5
21A
  8
DATA
  6
CONTINUOUS
 62
     7
 10
45.0
 20
-57.371186417792963
 30
0.0
 11
46.700000000000003
 21
-57.371186417792963
 31
0.0
  0
LINE
  5
21B
  8
DATA
  6
CONTINUOUS
 62
     7
 10
44.999999999999993
 20
-59.371186417792963
 30
0.0
 11
46.700000000000003
 21
-59.371186417792963
 31
0.0
  0
LINE
  5
21C
  8
DATA
  6
CONTINUOUS
 62
     7
 10
45.0
 20
-74.350000000000023
 30
0.0
 11
46.700000000000003
 21
-74.350000000000023
 31
0.0
  0
LINE
  5
21D
  8
DATA
  6
CONTINUOUS
 62
     7
 10
45.0
 20
-76.350000000000023
 30
0.0
 11
46.700000000000003
 21
-76.350000000000023
 31
0.0
  0
LINE
  5
21E
  8
DATA
  6
CONTINUOUS
 62
     7
 10
45.0
 20
-83.349999999999994
 30
0.0
 11
46.700000000000003
 21
-83.349999999999994
 31
0.0
  0
LINE
  5
21F
  8
DATA
  6
CONTINUOUS
 62
     7
 10
45.0
 20
-85.34999999999998
 30
0.0
 11
46.700000000000003
 21
-85.34999999999998
 31
0.0
  0
LINE
  5
220
  8
DATA
  6
CONTINUOUS
 62
     7
 10
46.700000000000003
 20
-57.371186417792963
 30
0.0
 11
46.700000000000003
 21
-59.37118641779297
 31
0.0
  0
LINE
  5
221
  8
DATA
  6
CONTINUOUS
 62
     7
 10
46.700000000000003
 20
-74.350000000000023
 30
0.0
 11
46.700000000000003
 21
-76.350000000000023
 31
0.0
  0
LINE
  5
222
  8
DATA
  6
CONTINUOUS
 62
     7
 10
46.700000000000003
 20
-83.349999999999994
 30
0.0
 11
46.700000000000003
 21
-85.349999999999966
 31
0.0
  0
LINE
  5
223
  8
DATA
  6
CONTINUOUS
 62
     7
 10
41.799999999999983
 20
-37.700000000000003
 30
0.0
 11
41.799999999999983
 21
-60.810518751464059
 31
0.0
  0
LINE
  5
224
  8
DATA
  6
CONTINUOUS
 62
     7
 10
41.799999999999983
 20
-77.889481248535972
 30
0.0
 11
41.799999999999983
 21
-124.9999999999999
 31
0.0
  0
LINE
  5
225
  8
DATA
  6
CONTINUOUS
 62
     7
 10
45.0
 20
-46.350000000000001
 30
0.0
 11
41.799999999999983
 21
-37.700000000000003
 31
0.0
  0
LINE
  5
226
  8
DATA
  6
CONTINUOUS
 62
     7
 10
41.799999999999983
 20
-124.9999999999999
 30
0.0
 11
44.68939742396109
 21
-117.1895975883551
 31
0.0
  0
LINE
  5
227
  8
DATA
  6
CONTINUOUS
 62
     7
 10
41.799999999999983
 20
-59.286452282678098
 30
0.0
 11
41.83537787691975
 21
-59.286452282678098
 31
0.0
  0
LINE
  5
228
  8
DATA
  6
CONTINUOUS
 62
     7
 10
35.0
 20
-43.717647058823452
 30
0.0
 11
35.0
 21
-60.810518751464073
 31
0.0
  0
LINE
  5
229
  8
DATA
  6
CONTINUOUS
 62
     7
 10
35.0
 20
-62.510518751464062
 30
0.0
 11
35.0
 21
-77.889481248535944
 31
0.0
  0
LINE
  5
22A
  8
DATA
  6
CONTINUOUS
 62
     7
 10
35.0
 20
-79.889481248535972
 30
0.0
 11
35.0
 21
-125.0
 31
0.0
  0
LINE
  5
22B
  8
DATA
  6
CONTINUOUS
 62
     7
 10
35.0
 20
-62.510518751464062
 30
0.0
 11
37.0
 21
-62.510518751464062
 31
0.0
  0
LINE
  5
22C
  8
DATA
  6
CONTINUOUS
 62
     7
 10
35.0
 20
-77.889481248535944
 30
0.0
 11
37.0
 21
-77.889481248535944
 31
0.0
  0
LINE
  5
22D
  8
DATA
  6
CONTINUOUS
 62
     7
 10
35.0
 20
-77.889481248535944
 30
0.0
 11
35.0
 21
-62.510518751464062
 31
0.0
  0
ARC
  5
22E
  8
DATA
  6
CONTINUOUS
 62
     7
 10
27.141176470588292
 20
-43.958823529411752
 30
0.0
 40
7.8625233453644334
 50
358.24222311839452
 51
52.75287986828102
  0
LINE
  5
22F
  8
DATA
  6
CONTINUOUS
 62
     7
 10
27.837620086022369
 20
-124.0204417950292
 30
0.0
 11
25.74544618249336
 21
-118.36503421205239
 31
0.0
  0
LINE
  5
230
  8
DATA
  6
CONTINUOUS
 62
     7
 10
33.38762594797285
 20
-53.67734302350442
 30
0.0
 11
33.38762594797285
 21
-85.706827309236942
 31
0.0
  0
LINE
  5
231
  8
DATA
  6
CONTINUOUS
 62
     7
 10
31.38762594797285
 20
-59.252779742580692
 30
0.0
 11
31.38762594797285
 21
-85.706827309236942
 31
0.0
  0
LINE
  5
232
  8
DATA
  6
CONTINUOUS
 62
     7
 10
32.597634673467333
 20
-52.699643511785112
 30
0.0
 11
23.65871112812609
 21
-50.779573062175778
 31
0.0
  0
LINE
  5
233
  8
DATA
  6
CONTINUOUS
 62
     7
 10
28.194454640204071
 20
-37.700000000000003
 30
0.0
 11
25.669872981077798
 21
-42.072703701463247
 31
0.0
  0
LINE
  5
234
  8
DATA
  6
CONTINUOUS
 62
     7
 10
22.717419350916291
 20
-92.780870982745185
 30
0.0
 11
19.252936688306399
 21
-106.03251716722789
 31
0.0
  0
LINE
  5
235
  8
DATA
  6
CONTINUOUS
 62
     7
 10
22.795655434474082
 20
-90.601647960298124
 30
0.0
 11
19.17015519367661
 21
-71.114584166011724
 31
0.0
  0
LINE
  5
236
  8
DATA
  6
CONTINUOUS
 62
     7
 10
24.795655434474082
 20
-90.601647960298124
 30
0.0
 11
21.16708705151445
 21
-71.098092901890183
 31
0.0
  0
LINE
  5
237
  8
DATA
  6
CONTINUOUS
 62
     7
 10
21.161271530420009
 20
-69.300844598144849
 30
0.0
 11
23.924560063546721
 21
-53.89436953726733
 31
0.0
  0
LINE
  5
238
  8
DATA
  6
CONTINUOUS
 62
     7
 10
19.170171229192508
 20
-69.285418817485507
 30
0.0
 11
22.465575560251221
 21
-51.574347420372852
 31
0.0
  0
LINE
  5
239
  8
DATA
  6
CONTINUOUS
 62
     7
 10
21.12498275172355
 20
-106.5219409746573
 30
0.0
 11
24.717419350916291
 21
-92.780870982745185
 31
0.0
  0
LINE
  5
23A
  8
DATA
  6
CONTINUOUS
 62
     7
 10
30.597634673467329
 20
-54.270045822562217
 30
0.0
 11
25.118861942743681
 21
-53.093211770114088
 31
0.0
  0
ARC
  5
23B
  8
DATA
  6
CONTINUOUS
 62
     7
 10
23.448702402631611
 20
-51.757272573895087
 30
0.0
 40
1.0000000000000011
 50
77.877136418626577
 51
169.45981169583141
  0
ARC
  5
23C
  8
DATA
  6
CONTINUOUS
 62
     7
 10
24.908853217249199
 20
-54.070911281833411
 30
0.0
 40
1.0000000000000011
 50
77.877136418626577
 51
169.8316093896855
  0
ARC
  5
23D
  8
DATA
  6
CONTINUOUS
 62
     7
 10
32.38762594797285
 20
-53.67734302350442
 30
0.0
 40
1.0000000000000071
 50
359.9999999999996
 51
77.877136418626094
  0
ARC
  5
23E
  8
DATA
  6
CONTINUOUS
 62
     7
 10
30.38762594797285
 20
-55.247745334281532
 30
0.0
 40
0.9999999999999985
 50
33.212470563864912
 51
77.877136418626577
  0
ARC
  5
23F
  8
DATA
  6
CONTINUOUS
 62
     7
 10
26.08273729893239
 20
-70.18355332097525
 30
0.0
 40
5.0000000000000044
 50
169.8316093896857
 51
190.53918372862799
  0
ARC
  5
240
  8
DATA
  6
CONTINUOUS
 62
     7
 10
24.085805441094521
 20
-70.200044585096776
 30
0.0
 40
5.0
 50
169.45981169583141
 51
190.5391837286281
  0
ARC
  5
241
  8
DATA
  6
CONTINUOUS
 62
     7
 10
17.880005187056149
 20
-91.516187541213128
 30
0.0
 40
4.9999999999999982
 50
345.34864142817793
 51
10.53918372862824
  0
ARC
  5
242
  8
DATA
  6
CONTINUOUS
 62
     7
 10
19.88000518705616
 20
-91.516187541213128
 30
0.0
 40
4.9999999999999982
 50
345.34864142817793
 51
10.53918372862841
  0
ARC
  5
243
  8
DATA
  6
CONTINUOUS
 62
     7
 10
20.220419521078441
 20
-106.2854538555343
 30
0.0
 40
0.9999999999999996
 50
165.34864142817821
 51
255.34864142817841
  0
ARC
  5
244
  8
DATA
  6
CONTINUOUS
 62
     7
 10
20.15749991895153
 20
-106.26900428635081
 30
0.0
 40
1.0000000000000051
 50
255.34864142817841
 51
345.34864142817742
  0
LINE
  5
245
  8
DATA
  6
CONTINUOUS
 62
     7
 10
31.224271063163709
 20
-54.699999999999932
 30
0.0
 11
32.20000000000001
 21
-54.699999999999932
 31
0.0
  0
LINE
  5
246
  8
DATA
  6
CONTINUOUS
 62
     7
 10
32.20000000000001
 20
-58.699999999999932
 30
0.0
 11
32.20000000000001
 21
-54.699999999999932
 31
0.0
  0
ARC
  5
247
  8
DATA
  6
CONTINUOUS
 62
     7
 10
32.38762594797285
 20
-85.706827309236942
 30
0.0
 40
1.0
 50
180.0
 51
270.0
  0
ARC
  5
248
  8
DATA
  6
CONTINUOUS
 62
     7
 10
32.38762594797285
 20
-85.706827309236942
 30
0.0
 40
1.0
 50
270.0
 51
0.0
  0
LINE
  5
249
  8
DATA
  6
CONTINUOUS
 62
     7
 10
35.0
 20
-91.699999999999989
 30
0.0
 11
25.0
 21
-91.699999999999989
 31
0.0
  0
ARC
  5
24A
  8
DATA
  6
CONTINUOUS
 62
     7
 10
32.387625947972857
 20
-85.706827309236942
 30
0.0
 40
1.2500000000000011
 50
143.13010235415521
 51
36.869897645844937
  0
ARC
  5
24B
  8
DATA
  6
CONTINUOUS
 62
     7
 10
37.0
 20
-114.2014998518187
 30
0.0
 40
12.0
 50
180.0
 51
200.3015605627437
  0
ARC
  5
24C
  8
DATA
  6
CONTINUOUS
 62
     7
 10
29.244439313210709
 20
-123.5
 30
0.0
 40
1.500000000000006
 50
200.3015605627437
 51
269.99999999999972
  0
ARC
  5
24D
  8
DATA
  6
CONTINUOUS
 62
     7
 10
40.0
 20
-115.45479160492449
 30
0.0
 40
4.9999999999999911
 50
339.69843943725681
 51
0.0000000000002842
  0
ARC
  5
24E
  8
DATA
  6
CONTINUOUS
 62
     7
 10
30.0
 20
-44.572703701463219
 30
0.0
 40
4.9999999999999947
 50
150.0000000000002
 51
180.00000000000011
  0
LINE
  5
24F
  8
DATA
  6
CONTINUOUS
 62
     7
 10
28.739238507468752
 20
-37.0
 30
0.0
 11
40.739238507468862
 21
-37.0
 31
0.0
  0
LINE
  5
250
  8
DATA
  6
CONTINUOUS
 62
     7
 10
26.600000000000001
 20
-62.510518751464069
 30
0.0
 11
26.600000000000001
 21
-77.889481248535944
 31
0.0
  0
LINE
  5
251
  8
DATA
  6
CONTINUOUS
 62
     7
 10
26.600000000000001
 20
-62.510518751464062
 30
0.0
 11
31.38762594797285
 21
-62.510518751464062
 31
0.0
  0
LINE
  5
252
  8
DATA
  6
CONTINUOUS
 62
     7
 10
33.38762594797285
 20
-62.510518751464062
 30
0.0
 11
43.499999999999993
 21
-62.510518751464062
 31
0.0
  0
LINE
  5
253
  8
DATA
  6
CONTINUOUS
 62
     7
 10
26.600000000000001
 20
-77.889481248535944
 30
0.0
 11
31.38762594797285
 21
-77.889481248535944
 31
0.0
  0
LINE
  5
254
  8
DATA
  6
CONTINUOUS
 62
     7
 10
33.38762594797285
 20
-77.889481248535944
 30
0.0
 11
41.799999999999983
 21
-77.889481248535944
 31
0.0
  0
LINE
  5
255
  8
DATA
  6
CONTINUOUS
 62
     7
 10
32.20000000000001
 20
-58.699999999999932
 30
0.0
 11
26.600000000000001
 21
-62.510518751464062
 31
0.0
  0
LINE
  5
256
  8
DATA
  6
CONTINUOUS
 62
     7
 10
35.0
 20
-80.940741247033884
 30
0.0
 11
33.38762594797285
 21
-80.940741247033884
 31
0.0
  0
LINE
  5
257
  8
DATA
  6
CONTINUOUS
 62
     7
 10
31.38762594797285
 20
-80.940741247033884
 30
0.0
 11
29.65125999849792
 21
-80.940741247033884
 31
0.0
  0
LINE
  5
258
  8
DATA
  6
CONTINUOUS
 62
     7
 10
26.600000000000001
 20
-77.889481248535944
 30
0.0
 11
29.651259998497931
 21
-80.940741247033884
 31
0.0
  0
LINE
  5
259
  8
DATA
  6
CONTINUOUS
 62
     7
 10
43.5
 20
-62.510518751464069
 30
0.0
 11
43.5
 21
-77.889481248535944
 31
0.0
  0
LINE
  5
25A
  8
DATA
  6
CONTINUOUS
 62
     7
 10
36.999999999999993
 20
-77.889481248535944
 30
0.0
 11
37.0
 21
-62.510518751464062
 31
0.0
  0
LINE
  5
25B
  8
DATA
  6
CONTINUOUS
 62
     7
 10
36.999999999999993
 20
-77.889481248535944
 30
0.0
 11
35.0
 21
-77.889481248535944
 31
0.0
  0
LINE
  5
25C
  8
DATA
  6
CONTINUOUS
 62
     7
 10
36.999999999999993
 20
-77.889481248535944
 30
0.0
 11
35.0
 21
-79.889481248535972
 31
0.0
  0
LINE
  5
25D
  8
DATA
  6
CONTINUOUS
 62
     7
 10
43.5
 20
-62.510518751464069
 30
0.0
 11
41.799999999999983
 21
-60.810518751464073
 31
0.0
  0
LINE
  5
25E
  8
DATA
  6
CONTINUOUS
 62
     7
 10
35.0
 20
-76.589481248535932
 30
0.0
 11
37.0
 21
-76.589481248535932
 31
0.0
  0
LINE
  5
25F
  8
DATA
  6
CONTINUOUS
 62
     7
 10
35.0
 20
-75.289481248535964
 30
0.0
 11
37.0
 21
-75.289481248535964
 31
0.0
  0
LINE
  5
260
  8
DATA
  6
CONTINUOUS
 62
     7
 10
35.0
 20
-73.989481248535924
 30
0.0
 11
37.0
 21
-73.989481248535924
 31
0.0
  0
LINE
  5
261
  8
DATA
  6
CONTINUOUS
 62
     7
 10
35.0
 20
-72.689481248535941
 30
0.0
 11
37.0
 21
-72.689481248535941
 31
0.0
  0
LINE
  5
262
  8
DATA
  6
CONTINUOUS
 62
     7
 10
35.0
 20
-71.389481248535944
 30
0.0
 11
37.0
 21
-71.389481248535944
 31
0.0
  0
LINE
  5
263
  8
DATA
  6
CONTINUOUS
 62
     7
 10
35.0
 20
-70.089481248535932
 30
0.0
 11
37.0
 21
-70.089481248535932
 31
0.0
  0
LINE
  5
264
  8
DATA
  6
CONTINUOUS
 62
     7
 10
35.0
 20
-68.789481248535935
 30
0.0
 11
37.0
 21
-68.789481248535935
 31
0.0
  0
LINE
  5
265
  8
DATA
  6
CONTINUOUS
 62
     7
 10
35.0
 20
-67.489481248535938
 30
0.0
 11
37.0
 21
-67.489481248535938
 31
0.0
  0
LINE
  5
266
  8
DATA
  6
CONTINUOUS
 62
     7
 10
35.0
 20
-66.189481248535941
 30
0.0
 11
37.0
 21
-66.189481248535941
 31
0.0
  0
LINE
  5
267
  8
DATA
  6
CONTINUOUS
 62
     7
 10
35.0
 20
-64.889481248535944
 30
0.0
 11
37.0
 21
-64.889481248535944
 31
0.0
  0
LINE
  5
268
  8
DATA
  6
CONTINUOUS
 62
     7
 10
35.0
 20
-63.589481248535932
 30
0.0
 11
37.0
 21
-63.589481248535932
 31
0.0
  0
LINE
  5
269
  8
DATA
  6
CONTINUOUS
 62
     7
 10
43.5
 20
-77.889481248535944
 30
0.0
 11
41.799999999999983
 21
-79.589481248535932
 31
0.0
  0
LINE
  5
26A
  8
DATA
  6
CONTINUOUS
 62
     7
 10
41.799999999999983
 20
-60.810518751464073
 30
0.0
 11
33.38762594797285
 21
-60.810518751464073
 31
0.0
  0
LINE
  5
26B
  8
DATA
  6
CONTINUOUS
 62
     7
 10
37.0
 20
-62.510518751464062
 30
0.0
 11
35.0
 21
-60.810518751464073
 31
0.0
  0
LINE
  5
26C
  8
DATA
  6
CONTINUOUS
 62
     7
 10
31.077147213771848
 20
-59.464044928045638
 30
0.0
 11
31.077147213771848
 21
-54.523479896744362
 31
0.0
  0
ENDSEC
  0
EOF
